Song name
# A B C D E F G H I J K L M N O P Q R S T U V W X Y Z

Fall Out Boy - Dead On Arrival tab

Fall Out Boy
Take This To Your Grave
Dead On Arrival
Tabbed by: Jennifer

Ok, so I absolutely LOVE this song but the other tab I found for it wasn’t 100% correct. 
it definitely got me started. Thanks :) But because my band really wanted to perform 
song, I tabbed it myself. And now I present you with the correct tab for…


Dead On Arrival


INTRO
e|--------------------------|
B|--------------------------|
G|---------------0-4-5-4-0--| X3
D|---33--77--55-------------|
A|---33--77--55-------------|
E|---11--55--33-------------|

e|--------------------------|
B|--------------------------|
G|--------------------------|
D|---33-—77-—55~55555555----|
A|---33--77--55-55555555----|
E|---11--55--33-33333333----|
                ........

VERSE
e|---------------------------------------------------|
B|---------------------------------------------------|
G|--55555555-----------------------------------------| X2
D|--55555555--2--3--777777--3333333333333333---------|
A|--33333333--2--3--777777--3333333333333333---------|
E|------------0--1--555555--1111111111111111---------|
                              ..............

PRE-CHORUS
e|---------------------------------------------------|
B|---------------------------------------------------|
G|---------------------------------------------------|
D|--77777777--33333333--777777777---3-33-3-33--------|
A|--77777777--33333333--777777777---3-33-3-33--------|
E|--55555555--11111111--555555555---1-11-1-11--------|


CHORUS
e|---------------------------------------------------|
B|---------------------------------------------------|
G|--55-5---------------------------------------------| X4
D|--55-5---5--7----33-3---7--5-----------------------|
A|--33-3---5--7----33-3---7--5-----------------------|
E|---------3--5----11-1---5--3-----------------------|


SOLO

Guitar 1
e|-----------------------------------------------------|
B|-----------------------------------------------------|
G|-5-5-4-4-5-5-4-4-5-5-4-4-5-7-9-9-4-4-5-5-4-4-5-5-4-4-|
D|-----------------------------------------------------|
A|-----------------------------------------------------|
E|-----------------------------------------------------|

e|-----------------------------------------------------|
B|-----------------------------------------------------|
G|-5-7-5-5-4-4-5-5-4-4-5-5-4-4-5-7-9-9-4-4—5-5-4-4-5-4-|
D|-----------------------------------------------------|
A|-----------------------------------------------------|
E|-----------------------------------------------------|

e|----------------------------------------------------|
B|----------------------------------------------------|
G|-0-5-4-0--------------------------------------------|
D|----------------------------------------------------|
A|----------------------------------------------------|
E|----------------------------------------------------|


01:07

Guitar 1
e|-----------------------------------------------------|
B|-----------------------------------------------------|
G|-5-5-4-4-5-5-4-4-5-5-4-4-5-7-9-9-4-4-5-5-4-4-5-5-4-4-|
D|-----------------------------------------------------|
A|-----------------------------------------------------|
E|-----------------------------------------------------|

e|----------------------------------------------------|
B|----------------------------------------------------|
G|-5-7-5-5-4-4-5-5-4-4-5-5-4-4-5-7-5-4-0--------------|
D|----------------------------------------------------|
A|----------------------------------------------------|
E|----------------------------------------------------|

Guitar 2
e|----------------------------------------------------|
B|----------------------------------------------------|
G|-9-9-7-7-9-9-7-7-9-9-7-7-9-10-9-9-7-7-9-9-7-7-9-9-7-|
D|----------------------------------------------------|
A|----------------------------------------------------|
E|----------------------------------------------------|

e|----------------------------------------------------|
B|----------------------------------------------------|
G|-7-9-10-9-9-7-7-9-9-7-7-9-9-7-7-9-10-12-9-7~--------|
D|----------------------------------------------------|
A|----------------------------------------------------|
E|----------------------------------------------------|

VERSE

PRE-CHORUS

CHORUS
e|---------------------------------------------------|
B|---------------------------------------------------|
G|--55-5---------------------------------------------| X2
D|--55-5---5--7----33-3---7--5-----------------------|
A|--33-3---5--7----33-3---7--5-----------------------|
E|---------3--5----11-1---5--3-----------------------|

e|---------------------------------------------------|
B|---------------------------------------------------|
G|--5555---------------------------------------------| X2
D|--5555---55-77---3333---77-55----------------------|
A|--3333---55-77---3333---77-55----------------------|
E|---------33-55---1111---55-33----------------------|


BRIDGE

e|--------------------------|
B|--------------------------|
G|--------------------------| X4
D|---33—-77--5555~----------|
A|---33--77--5555-----------|
E|---11--55--3333-----------|


                    “This is side one, flip me over    I know I’m not
e|---------------------------------------------------------------------|
B|---------------------------------------------------------------------|
G|-----------------5~-------------------------------5~-----------------|
D|---33—-77—-5555--5--------------------------------5------------------|
A|---33-—77—-5555--3--------------------------------3------------------|
E|---11--55--3333------------------------------------------------------|

your favorite record…         side one       this is side one”
e|------------------------------------------------------------\------|
B|-------------------------------------------------------------\-----|
G|---5555555555555555-5555555555555555---5-5--------------------\----|
D|---5555555555555555-5555555555555555---5-5---------------------\---|
A|---3333333333333333-3333333333333333---3-3----------------------\--|
E|-----------------------------------------------------------------\-|
     ................ ................
                      (palm mute faster here)

e|--------------------------|
B|--------------------------|
G|-------------------55-----|
D|---33--77--55--77--55-----|
A|---33--77--55--77--33-----|
E|---11--55--33--55---------|

Flip me over!
            e|--------------------------|
            B|--------------------------|
            G|--------------------------|
            D|---33--77--55--77---------|
            A|---33--77--55--77---------|
            E|---11--55--33--55---------|

CHORUS
e|---------------------------------------------------|
B|---------------------------------------------------|
G|--5555---------------------------------------------| X6
D|--5555---55-77---3333---77-55----------------------|
A|--3333---55-77---3333---77-55----------------------|
E|---------33-55---1111---55-33----------------------|


ENDING
e|--------|
B|--------|
G|--55----|
D|--55----|
A|--33----|
E|--------|

And that’s it :) hope you liked my first tab

~ Jen
Tap to rate this tab
# A B C D E F G H I J K L M N O P Q R S T U V W X Y Z