Song name
# A B C D E F G H I J K L M N O P Q R S T U V W X Y Z

Fall Out Boy - Our Lawyer Made Us Change The Name Of This Song So We Wouldnt Get Sued tab

Help us improve GuitareTab! Take a short survey!
Song: Our Lawyer Made Us Change the Name of this Song So We Wouldn't Get Sued
Artist: Fall Out Boy
Album: From Under The Cork Tree
Release: May 3, 2005
Label: Island Records
	Fall Out Boy is:
Vaocals: Patrick Stump
Guitars: Joe Trohman
Guitars: Patrick Stump
Bass Guitars: Peter Wentz
Drums: Andy Hurley
	Fall Out Boy uses:
(Unknown)

Standard Tuning (Guitar 1)
e|--
b|--
g|--
d|--
a|--
E|--

Symbols Used In This Song:

x Mute
. Palm Mutes
(.) Fade Out of Palm Mutes
~ Hold Note
p Pull Off
h Hammer On

Tabbed By: Rhy Chermside
I'm constantly improving and correcting my tabs, so if you have any suggestions email me.
	BeatOnTheBrat91@hotmail.com


Guitar 1 (Lead) Intro:
e|---------------------------------------------------------------|
b|---------------------------------------------------------------|
g|--9/10-101010101010-9/10-1010-9/10-9/10-101010101010-9/10-1010-|
d|--x-x--x-x-x-x-x-x--x-x--x-x--x-x--x-x--x-x-x-x-x-x--x-x--x-x--|
a|--7/8--8-8-8-8-8-8--7/8--8-8--7/8--7/8--8-8-8-8-8-8--7/8--8-8--|
E|---------------------------------------------------------------|

Guitar 1 Intro:
e|-------------------------------------------------------------------------------------|
b|-------------------------------------------------------------------------------------|
g|--9/10-1010101010101010101010101010101010---9/10-10101010101010--9/10-10101010101010-|
d|--x-x--x-x-x-x-x-x-x-x-x-x-x-x-x-x-x-x-x----x-x--x-x-x-x-x-x-x---x-x--x-x-x-x-x-x-x--|
a|--7/8--8-8-8-8-8-8-8-8-8-8-8-8-8-8-8-8-8----7/8--8-8-8-8-8-8-8---7/8--8-8-8-8-8-8-8--|
E|-------------------------------------------------------------------------------------|

Guitar 2 (Rhythm) Intro:
e|--------------------------------------------------------------------------------------|
b|--------------------------------------------------------------------------------------|
g|--------------------------------------------------------------------------------------|
d|--2--2-2--2-2--2-2--2-2--2-2--2-2--2-2--2---8--8-8--8-8--8-8--8---5--5-5--5-5--5-5--5-|
a|--2--2-2--2-2--2-2--2-2--2-2--2-2--2-2--2---8--8-8--8-8--8-8--8---5--5-5--5-5--5-5--5-|
E|--0--0-0--0-0--0-0--0-0--0-0--0-0--0-0--0---6--6-6--6-6--6-6--6---3--3-3--3-3--3-3--3-|

Guitar 1 Intro:
e|-------------------------------------------------------------------------------------|
b|-------------------------------------------------------------------------------------|
g|--9/10-1010101010101010101010101010101010---9/10-10101010101010--9/10-10101010101010-|
d|--x-x--x-x-x-x-x-x-x-x-x-x-x-x-x-x-x-x-x----x-x--x-x-x-x-x-x-x---x-x--x-x-x-x-x-x-x--|
a|--7/8--8-8-8-8-8-8-8-8-8-8-8-8-8-8-8-8-8----7/8--8-8-8-8-8-8-8---7/8--8-8-8-8-8-8-8--|
E|-------------------------------------------------------------------------------------|

Guitar 2 Intro:
e|--------------------------------------------------------------------------------------|
b|--------------------------------------------------------------------------------------|
g|--------------------------------------------------------------------------------------|
d|--2--2-2--2-2--2-2--2-2--2-2--2-2--2-2--2---8--8-8--8-8--8-8--8---5--5-5--5-5--5-5--5-|
a|--2--2-2--2-2--2-2--2-2--2-2--2-2--2-2--2---8--8-8--8-8--8-8--8---5--5-5--5-5--5-5--5-|
E|--0--0-0--0-0--0-0--0-0--0-0--0-0--0-0--0---6--6-6--6-6--6-6--6---3--3-3--3-3--3-3--3-|






Guitar 1 Verse:
e|----------------------------------------|
b|----------------------------------------|
g|--7----7----7----7-----7----7----7----7-|
d|--7----7----7----7-----7----7----7----7-|
a|--5----5----5----5-----4----4----4----4-|
E|----------------------------------------|
 Brothers and sisters put this record down

Guitar 1 Verse:
e|----------------------------------------|
b|----------------------------------------|
g|--5----5----5----5----------------------|
d|--5----5----5----5------5~-7~--8~--10~--|
a|--3----3----3----3------5~-7~--8~--10~--|
E|------------------------3~-5~--6~--8~---|
    Take my advise \'Cause we are bad news

Guitar 1 Verse:
e|-----------------------------------|
b|-----------------------------------|
g|--10101010101010101010101010101010-|
d|--x-x-x-x-x-x-x-x-x-x-x-x-x-x-x-x--|
a|--8-8-8-8-8-8-8-8-8-8-8-8-8-8-8-8--|
E|-----------------------------------|

Guitar 2 Verse:
e|-----------------------------------|
b|-----------------------------------|
g|-----------------------------------|
d|--2---------------7-8--------------|
a|--2---------------7-8--------------|
E|--0---------------5-6--------------|
    We will leave you high and dry 

Guitar 1 Verse:
e|-------------------------------------|
b|-------------------------------------|
g|--1010101010101010101010101010101010-|
d|--x-x-x-x-x-x-x-x-x-x-x-x-x-x-x-x-x--|
a|--8-8-8-8-8-8-8-8-8-8-8-8-8-8-8-8-8--|
E|-------------------------------------|

Guitar 2:
e|-------------------------------------|
b|-------------------------------------|
g|-------------------------------------|
d|--7-5-------------7-8-------10--10---|
a|--7-5-------------7-8-------10--10---|
E|--5-3-------------5-6-------8---8----|
     It\'s not worth   hearing you lose






Guitar 1 Interlude:
e|--------8-----8---------------8-----8---------------8-----8-----|
b|--5h6-6---6-5---6-5-----5h6-6---6-5---6-5-----5h6-6---6-5---6-5-|
g|----------------------------------------------------------------|
d|----------------------------------------------------------------|
a|----------------------------------------------------------------|
E|----------------------------------------------------------------|

Guitar 2 Interlude
e|------------------------------------------------------------------|
b|------------------------------------------------------------------|
g|-------------------5---5---5---5----------------------------------|
d|--8---8---8---8----5---5---5---5----5---5---5---5---5---5---5---5-|
a|--8---8---8---8----3---3---3---3----5---5---5---5---5---5---5---5-|
E|--6---6---6---6---------------------3---3---3---3---3---3---3---3-|
It\'s just past eight    and I\'m         feeling young and reckless

Guitar 1 Interlude:
e|--------8-----8---------------8-----8-----------------------------------------|
b|--5h6-6---6-5---6-5-----5h6-6---6-5-------------------------------------------|
g|-------------------------------------------------------1010101010101010101010-|
d|-------------------------------------------------------x-x-x-x-x-x-x-x-x-x-x--|
a|-------------------------------------------------------7/8-8-8-8-8-8-8-8-8-8--|
E|------------------------------------------------------------------------------|

Guitar 2 Interlude
e|------------------------------------------------------------------------------|
b|------------------------------------------------------------------------------|
g|-------------------5---5---5---5----------------------------------------------|
d|--8---8---8---8----5---5---5---5----5-----------------------------------------|
a|--8---8---8---8----3---3---3---3----5-----------------------------------------|
E|--6---6---6---6---------------------3-----------------------------------------|
      The ribbon  on my wrist says    \"Do not open before Christmas\"



Guitar 1 Chorus:
e|---------------------------------------------------------------|
b|---------------------------------------------------------------|
g|--101010101010101010101010101010101010101010101010101010101010-|
d|--x-x-x-x-x-x-x-x-x-x-x-x-x-x-x-x-x-x-x-x-x-x-x-x-x-x-x-x-x-x--|
a|--8-8-8-8-8-8-8-8-8-8-8-8-8-8-8-8-8-8-8-8-8-8-8-8-8-8-8-8-8-8--|
E|---------------------------------------------------------------|

Guitar 2 Chorus:
e|---------------------------------------------------------------|
b|---------------------------------------------------------------|
g|---------------------------------------------------------------|
d|--7--------7-7---------7--2-2--2-2--2-2--2-2--2-2--2-2--2-2--2-|
a|--7--------7-7---------7--2-2--2-2--2-2--2-2--2-2--2-2--2-2--2-|
E|--5--------5-4---------5--0-0--0-0--0-0--0-0--0-0--0-0--0-0--0-|
    We\'re only   liars,   but we\'re the best
                                             (We\'re the best)
Guitar 1 Chorus:
e|---------------------------------------------------------------|
b|---------------------------------------------------------------|
g|--101010101010101010101010101010101010101010101010101010101010-|
d|--x-x-x-x-x-x-x-x-x-x-x-x-x-x-x-x-x-x-x-x-x-x-x-x-x-x-x-x-x-x--|
a|--8-8-8-8-8-8-8-8-8-8-8-8-8-8-8-8-8-8-8-8-8-8-8-8-8-8-8-8-8-8--|
E|---------------------------------------------------------------|

Guitar 2 Chorus:
e|---------------------------------------------------------------|
b|---------------------------------------------------------------|
g|---------------------------------------------------------------|
d|--7--------7-7---------7--2-2--2-2--2-2--2-2--2-2--2-2--2-2--2-|
a|--7--------7-7---------7--2-2--2-2--2-2--2-2--2-2--2-2--2-2--2-|
E|--5--------5-4---------5--0-0--0-0--0-0--0-0--0-0--0-0--0-0--0-|
    We\'re only good for the latest trend

Guitar 1 Chorus:
e|---------------------------------------------------------------------|
b|---------------------------------------------------------------------|
g|--101010101010101010101010101010101010101010101010101010101010101010-|
d|--x-x-x-x-x-x-x-x-x-x-x-x-x-x-x-x-x-x-x-x-x-x-x-x-x-x-x-x-x-x-x-x-x--|
a|--8-8-8-8-8-8-8-8-8-8-8-8-8-8-8-8-8-8-8-8-8-8-8-8-8-8-8-8-8-8-8-8-8--|
E|---------------------------------------------------------------------|

Guitar 2 Chorus:
e|---------------------------------------------------------------------|
b|---------------------------------------------------------------------|
g|---------------------------------------------------------------------|
d|--7-7-7-7-7-7-7-7---7-7-7-7-7-7-7-7---2-2-2-2-2-2-2-2-2-2-2-2-2-2-2--|
a|--7-7-7-7-7-7-7-7---7-7-7-7-7-7-7-7---2-2-2-2-2-2-2-2-2-2-2-2-2-2-2--|
E|--5-5-5-5-5-5-5-5---4-4-4-4-4-4-4-4---0-0-0-0-0-0-0-0-0-0-0-0-0-0-0--|
    We\'re only good  \'cause you can have almost famouse friends

Guitar 1 Chorus:
e|---------------------------------------------|
b|---------------------------------------------|
g|--101010101010101010101010101010101010101010-|
d|--x-x-x-x-x-x-x-x-x-x-x-x-x-x-x-x-x-x-x-x-x--|
a|--8-8-8-8-8-8-8-8-8-8-8-8-8-8-8-8-8-8-8-8-8--|
E|---------------------------------------------|

Guitar 2 Chorus:
e|---------------------------------------------|
b|---------------------------------------------|
g|---------------------------------------------|
d|--7-7-7-7-7-7-7-7---7-7-7-7-7-7-7-7---2~~~---|
a|--7-7-7-7-7-7-7-7---7-7-7-7-7-7-7-7---2~~~---|
E|--5-5-5-5-5-5-5-5---4-4-4-4-4-4-4-4---0~~~---|
    Besides    we\'ve   got     such    good 




Guitar 1 Interlude:
e|-------------------------------------------------|
b|-------------------------------------------------|
g|-------------------------------------------------|
d|--2--2-2-2-2--2--2-2-2-2--2--2-2-2-2--2--2-2-2-2-|
a|--2--2-2-2-2--2--2-2-2-2--2--2-2-2-2--2--2-2-2-2-|
E|--0--0-0-0-0--0--0-0-0-0--0--0-0-0-0--0--0-0-0-0-|
    .  . . . .  .  . . . .  .  . . . .  .  . . . .   
      Fasion   sense

Guitar 1 Interlude:
e|-------------------------------------------------|
b|-------------------------------------------------|
g|-------------------------------------------------|
d|--8--8-8-8-8--8--8-8-8-8--5--5-5-5-5--5--5-5-5-5-|
a|--8--8-8-8-8--8--8-8-8-8--5--5-5-5-5--5--5-5-5-5-|
E|--6--6-6-6-6--6--6-6-6-6--3--3-3-3-3--3--3-3-3-3-|
    .  . . . .  .  . . . .  .  . . . .  .  . . . .      

Guitar 1 Interlude:
e|-------------------------------------------------|
b|-------------------------------------------------|
g|-------------------------------------------------|
d|--2--2-2-2-2--2--2-2-2-2--2--2-2-2-2--2--2-2-2-2-|
a|--2--2-2-2-2--2--2-2-2-2--2--2-2-2-2--2--2-2-2-2-|
E|--0--0-0-0-0--0--0-0-0-0--0--0-0-0-0--0--0-0-0-0-|
    .  . . . .  .  . . . .  .  . . . .  .  . . . .   

Guitar 2 Interlude:
e|-------------------------------------------------|
b|-------------------------------------------------|
g|-------------------------------------------------|
d|--2-----------2-----------2-----------2----------|
a|--2-----------2-----------2-----------2----------|
E|--0-----------0-----------0-----------0----------|

Guitar 1 Interlude:
e|-------------------------------------------------|
b|-------------------------------------------------|
g|-------------------------------------------------|
d|--8--8-8-8-8--8--8-8-8-8--5--5-5-5-5--5--5-5-5-5-|
a|--8--8-8-8-8--8--8-8-8-8--5--5-5-5-5--5--5-5-5-5-|
E|--6--6-6-6-6--6--6-6-6-6--3--3-3-3-3--3--3-3-3-3-|
    .  . . . .  .  . . . .  .  . . . .  .  . . . . 

Guitar 2 Interlude:
e|-------------------------------------------------|
b|-------------------------------------------------|
g|-------------------------------------------------|
d|--8-----------8-----------5-----------5----------|
a|--8-----------8-----------5-----------5----------|
E|--6-----------6-----------3-----------3----------|

                                         



Guitars 1 & 2 Verse:
e|-----------------------------------------------------------|
b|-----------------------------------------------------------|
g|-----------------------------------------------------------|
d|--2----2----2----2----2----2----2----2----2----2----2----2-|
a|--2----2----2----2----2----2----2----2----2----2----2----2-|
E|--0----0----0----0----0----0----0----0----0----0----0----0-|
 Brothers and sisters put these words down, into your notebook

Guitar 1 Verse:
e|-------------------------|
b|-------------------------|
g|--5-----6-----8----10----|
d|--x-----x-----x----x-----|
a|--3-----5-----6----8-----|
E|-------------------------|
   (Split lines like these)

Guitar 1 Verse:
e|-------------------------------------------------|
b|-------------------------------------------------|
g|--1010101010101010101010101010101010101010101010-|
d|--x-x-x-x-x-x-x-x-x-x-x-x-x-x-x-x-x-x-x-x-x-x-x--|
a|--8-8-8-8-8-8-8-8-8-8-8-8-8-8-8-8-8-8-8-8-8-8-8--|
E|-------------------------------------------------|

Guitar 2 Verse:
e|-------------------------------------------------|
b|-------------------------------------------------|
g|-------------------------------------------------|
d|--2---------------------7-8----------------------|
a|--2---------------------7-8----------------------|
E|--0---------------------5-6----------------------|
    We\'re good friends only when your on your knees

Guitar 1 Verse:
e|--------------------------------------------------|
b|--------------------------------------------------|
g|--1010101010101010101010101010101010101010101010--|
d|--x-x-x-x-x-x-x-x-x-x-x-x-x-x-x-x-x-x-x-x-x-x-x---|
a|--8-8-8-8-8-8-8-8-8-8-8-8-8-8-8-8-8-8-8-8-8-8-8---|
E|--------------------------------------------------|

Guitar 2:
e|--------------------------------------------------|
b|--------------------------------------------------|
g|--------------------------------------------------|
d|--7-5-------------------7-8------------10----10---|
a|--7-5-------------------7-8------------10----10---|
E|--5-3-------------------5-6------------8-----8----|
     Make them like when we were shoting their feet






Guitar 1 Interlude:
e|--------8-----8---------------8-----8---------------8-----8-----|
b|--5h6-6---6-5---6-5-----5h6-6---6-5---6-5-----5h6-6---6-5---6-5-|
g|----------------------------------------------------------------|
d|----------------------------------------------------------------|
a|----------------------------------------------------------------|
E|----------------------------------------------------------------|

Guitar 2 Interlude
e|------------------------------------------------------------------|
b|------------------------------------------------------------------|
g|-------------------5---5---5---5----------------------------------|
d|--8---8---8---8----5---5---5---5----5---5---5---5---5---5---5---5-|
a|--8---8---8---8----3---3---3---3----5---5---5---5---5---5---5---5-|
E|--6---6---6---6---------------------3---3---3---3---3---3---3---3-|
It\'s just past eight    and I\'m         feeling young and reckless

Guitar 1 Interlude:
e|--------8-----8---------------8-----8-----------------------------------------|
b|--5h6-6---6-5---6-5-----5h6-6---6-5-------------------------------------------|
g|-------------------------------------------------------1010101010101010101010-|
d|-------------------------------------------------------x-x-x-x-x-x-x-x-x-x-x--|
a|-------------------------------------------------------7/8-8-8-8-8-8-8-8-8-8--|
E|------------------------------------------------------------------------------|

Guitar 2 Interlude
e|------------------------------------------------------------------------------|
b|------------------------------------------------------------------------------|
g|-------------------5---5---5---5----------------------------------------------|
d|--8---8---8---8----5---5---5---5----5-----5--5--------------------------------|
a|--8---8---8---8----3---3---3---3----5-----5--5--------------------------------|
E|--6---6---6---6---------------------3-----3--3--------------------------------|
                                            .  .
       The ribbon  on my wrist says    \"Do not open before Christmas\"





Guitar 1 Chorus:
e|---------------------------------------------------------------|
b|---------------------------------------------------------------|
g|--101010101010101010101010101010101010101010101010101010101010-|
d|--x-x-x-x-x-x-x-x-x-x-x-x-x-x-x-x-x-x-x-x-x-x-x-x-x-x-x-x-x-x--|
a|--8-8-8-8-8-8-8-8-8-8-8-8-8-8-8-8-8-8-8-8-8-8-8-8-8-8-8-8-8-8--|
E|---------------------------------------------------------------|

Guitar 2 Chorus:
e|---------------------------------------------------------------|
b|---------------------------------------------------------------|
g|---------------------------------------------------------------|
d|--7--------7-7---------7--2-2--2-2--2-2--2-2--2-2--2-2--2-2--2-|
a|--7--------7-7---------7--2-2--2-2--2-2--2-2--2-2--2-2--2-2--2-|
E|--5--------5-4---------5--0-0--0-0--0-0--0-0--0-0--0-0--0-0--0-|
    We\'re only   liars,   but we\'re the best
                                             (We\'re the best)
Guitar 1 Chorus:
e|---------------------------------------------------------------|
b|---------------------------------------------------------------|
g|--101010101010101010101010101010101010101010101010101010101010-|
d|--x-x-x-x-x-x-x-x-x-x-x-x-x-x-x-x-x-x-x-x-x-x-x-x-x-x-x-x-x-x--|
a|--8-8-8-8-8-8-8-8-8-8-8-8-8-8-8-8-8-8-8-8-8-8-8-8-8-8-8-8-8-8--|
E|---------------------------------------------------------------|

Guitar 2 Chorus:
e|---------------------------------------------------------------|
b|---------------------------------------------------------------|
g|---------------------------------------------------------------|
d|--7--------7-7---------7--2-2--2-2--2-2--2-2--2-2--2-2--2-2--2-|
a|--7--------7-7---------7--2-2--2-2--2-2--2-2--2-2--2-2--2-2--2-|
E|--5--------5-4---------5--0-0--0-0--0-0--0-0--0-0--0-0--0-0--0-|
    We\'re only good for the latest trend

Guitar 1 Chorus:
e|---------------------------------------------------------------------|
b|---------------------------------------------------------------------|
g|--101010101010101010101010101010101010101010101010101010101010101010-|
d|--x-x-x-x-x-x-x-x-x-x-x-x-x-x-x-x-x-x-x-x-x-x-x-x-x-x-x-x-x-x-x-x-x--|
a|--8-8-8-8-8-8-8-8-8-8-8-8-8-8-8-8-8-8-8-8-8-8-8-8-8-8-8-8-8-8-8-8-8--|
E|---------------------------------------------------------------------|

Guitar 2 Chorus:
e|---------------------------------------------------------------------|
b|---------------------------------------------------------------------|
g|---------------------------------------------------------------------|
d|--7-7-7-7-7-7-7-7---7-7-7-7-7-7-7-7---2-2-2-2-2-2-2-2-2-2-2-2-2-2-2--|
a|--7-7-7-7-7-7-7-7---7-7-7-7-7-7-7-7---2-2-2-2-2-2-2-2-2-2-2-2-2-2-2--|
E|--5-5-5-5-5-5-5-5---4-4-4-4-4-4-4-4---0-0-0-0-0-0-0-0-0-0-0-0-0-0-0--|
    We\'re only good  \'cause you can have  almost famouse friends

Guitar 1 Chorus:
e|---------------------------------------------|
b|---------------------------------------------|
g|--101010101010101010101010101010101010101010-|
d|--x-x-x-x-x-x-x-x-x-x-x-x-x-x-x-x-x-x-x-x-x--|
a|--8-8-8-8-8-8-8-8-8-8-8-8-8-8-8-8-8-8-8-8-8--|
E|---------------------------------------------|

Guitar 2 Chorus:
e|---------------------------------------------|
b|---------------------------------------------|
g|---------------------------------------------|
d|--7-7-7-7-7-7-7-7---7-7-7-7-7-7-7-7---2~~~---|
a|--7-7-7-7-7-7-7-7---7-7-7-7-7-7-7-7---2~~~---|
E|--5-5-5-5-5-5-5-5---4-4-4-4-4-4-4-4---0~~~---|
    Besides    we\'ve   got     such    good 





Guitars 1 & 2 Bridge:
e|-----------------------------------------------------------|
b|-----------------------------------------------------------|
g|-----------------------------------------------------------|
d|--2----2----2----2----2----2----2----2----2----2----2----2-|
a|--2----2----2----2----2----2----2----2----2----2----2----2-|
E|--0----0----0----0----0----0----0----0----0----0----0----0-|
      Fasion   sense

Guitar 1 Bridge:
e|-------------------------|
b|-------------------------|
g|--5-----6-----8----10----|
d|--x-----x-----x----x-----|
a|--3-----5-----6----8-----|
E|-------------------------|

Guitar 1 Bridge:
e|------8-----8-----8-----8-----8---------8-----8-----8-----8-|
b|--5h6---5h6---5h6---5h6---5h6---5h6-5h6---5h6---5h6---5h6---|
g|------------------------------------------------------------|
d|------------------------------------------------------------|
a|------------------------------------------------------------|
E|------------------------------------------------------------|

Guitar 2 Bridge:
e|------------------------------------------------------------|
b|------------------------------------------------------------|
g|------------------------------------------------------------|
d|--2----2----2----2----2----2----2----2----2----2----2----2--|
a|--2----2----2----2----2----2----2----2----2----2----2----2--|
E|--0----0----0----0----0----0----0----0----0----0----0----0--|


Guitar 1 Bridge: (Clean)
e|----------------------------------------------------|
b|----------------------------------------------------|
g|--7-7-7-7-7-7-7-7-7-7-7-7-7-7-7-7--7-7-7-7--5-5-5-5-|
d|--5-5-5-5-5-5-5-5-5-5-5-5-5-5-5-5--4-4-4-4--3-3-3-3-|
a|--5-5-5-5-5-5-5-5-5-5-5-5-5-5-5-5--4-4-4-4--3-3-3-3-|
E|----------------------------------------------------|
             We\'re only liars but we\'re the best

Guitar 1 Bridge: (Clean)
e|-------------------------------------|
b|-------------------------------------|
g|--7--7--7--7----7--7--7--7-----5~~~~-|
d|--5--5--5--5----4--4--4--4-----3~~~~-|
a|--5--5--5--5----4--4--4--4-----3~~~~-|
E|-------------------------------------|
    We\'re only good for the latest trend






Guitar 1 & 2 Chorus:
e|---------------------------------------------------------------------|
b|---------------------------------------------------------------------|
g|---------------------------------------------------------------------|
d|--7-7-7-7-7-7-7-7---7-7-7-7-7-7-7-7---2-2-2-2-2-2-2-2-2-2-2-2-2-2-2--|
a|--7-7-7-7-7-7-7-7---7-7-7-7-7-7-7-7---2-2-2-2-2-2-2-2-2-2-2-2-2-2-2--|
E|--5-5-5-5-5-5-5-5---4-4-4-4-4-4-4-4---0-0-0-0-0-0-0-0-0-0-0-0-0-0-0--|
     We\'re    only    liars    but      we\'re    the     best

Guitar 1 & 2 Chorus:
e|---------------------------------------------------------------------|
b|---------------------------------------------------------------------|
g|---------------------------------------------------------------------|
d|--7-7-7-7-7-7-7-7---7-7-7-7-7-7-7-7---2-2-2-2-2-2-2-2-2-2-2-2-2-2-2--|
a|--7-7-7-7-7-7-7-7---7-7-7-7-7-7-7-7---2-2-2-2-2-2-2-2-2-2-2-2-2-2-2--|
E|--5-5-5-5-5-5-5-5---4-4-4-4-4-4-4-4---0-0-0-0-0-0-0-0-0-0-0-0-0-0-0--|
    We\'re    only    good   for   the    latest     trend

Guitar 1 & 2 Chorus:
e|---------------------------------------------------------------------|
b|---------------------------------------------------------------------|
g|---------------------------------------------------------------------|
d|--7-7-7-7-7-7-7-7---7-7-7-7-7-7-7-7---2-2-2-2-2-2-2-2-2-2-2-2-2-2-2--|
a|--7-7-7-7-7-7-7-7---7-7-7-7-7-7-7-7---2-2-2-2-2-2-2-2-2-2-2-2-2-2-2--|
E|--5-5-5-5-5-5-5-5---4-4-4-4-4-4-4-4---0-0-0-0-0-0-0-0-0-0-0-0-0-0-0--|
    We\'re   only     good \'cause   you  can have almost famouse friends

Guitar 1 & 2 Chorus:
e|-------------------------------------------|
b|-------------------------------------------|
g|-------------------------------------------|
d|--7~~~~---------7~~~~---------2~~~~--------|
a|--7~~~~---------7~~~~---------2~~~~--------|
E|--5~~~~---------4~~~~---------0~~~~--------|
    Besides we\'ve got such good fasion sense
Related for Our Lawyer Made Us Change The Name Of This Song So We Wouldnt Get Sued tab