Song name
# A B C D E F G H I J K L M N O P Q R S T U V W X Y Z

Fall Out Boy - My Heart Is The Worst Kind Of Weapon Acoustic tab

Song:My Heart Is The Worst Kind of Weapon
Artist:Fall Out Boy
Album:My Heart Will Always Be the B-Side Of My Tongue


Intro/Verse
       Am                C                E7                Fmaj9
|-----x-------x-|-------x-------x-|-7-7-7-x-7-7-7-x-|-------x-------x-|
|-3-3-x-3-3-3-x-|-5-5-5-x-5-5-5-x-|-9-9-9-x-9-9-9-x-|-8-8-8-x-8-8-8-x-|
|-5-5-x-5-5-5-x-|-5-5-5-x-5-5-5-x-|-7-7-7-x-7-7-7-x-|-9-9-9-x-9-9-9-x-|
|-5-5-x-5-5-5-x-|-5-5-5-x-5-5-5-x-|-9-9-9-x-9-9-9-x-|-7-7-7-x-7-7-7-x-|
|-x-x-x-x-x-x-x-|-3-3-3-x-3-3-3-x-|-7-7-7-x-7-7-7-x-|-8-8-8-x-8-8-8-x-|
|-5-5-x-5-5-5-x-|-------x-------x-|-------x-------x-|-------x-------x-|

Verse 2
     Am7       G     C           Dm             F
|-0--0--0-0-|-3-3-x-0-0-x-|-1-1--1--1--1-|-1-1-1--1-1-1-1-|
|-1--1--1-1-|-3-3-x-1-1-x-|-3-3--3--3--3-|-1-1-1--1-1-1-1-|
|-0--0--0-0-|-0-0-x-0-0-x-|-2-2--2--2--2-|-2-2-2--2-2-2-2-|
|-2--2--2-2-|-0-0-x-2-2-x-|-0-0--0--0--0-|-3-3-3--3-3-3-3-|
|-0--0--0-0-|-2-2-x-3-3-x-|--------------|-3-3-3--3-3-3-3-|
|-----------|-3-3-x-----x-|--------------|-1-1-1--1-1-1-1-|

Chorus ((x8)=8 beats,listen to the song for the strumming pattern)
     F       C
|-1------|-0------|-0------|
|-1------|-1------|-1------|
|-2-(x8)-|-0-(x4)-|-0-(x4)-|
|-3------|-2------|-2------|
|-3------|-3------|-0------|
|-1------|--------|--------|

Outro

|-------------------|--------------------------|
|-------------------|--------------------------|
|-------------------|--------------------------|
|-------------------|--------------------------|
|-------------------|--------------------------|
|-0-0--0-0-0--0-0-0-|-0-0-0--0-0-0--0-0-0--0-0-|

            Em7
|-0-0-0-0-0-0--0-0-0--0-0-0-0-|
|-3-3-3-3-3-3--3-3-3--3-3-3-3-|
|-0-0-0-0-0-0--0-0-0--0-0-0-0-|
|-2-2-2-2-2-2--2-2-2--2-2-2-2-|x4
|-2-2-2-2-2-2--2-2-2--2-2-2-2-|
|-0-0-0-0-0-0--0-0-0--0-0-0-0-|

     Am          C           E7         Fmaj9
|-----------|-----------|-7-7~~~~~~-|-----------|
|-3-3~~~~~~-|-5-5~~~~~~-|-9-9~~~~~~-|-8-8~~~~~~-|
|-5-5~~~~~~-|-5-5~~~~~~-|-7-7~~~~~~-|-9-9~~~~~~-|
|-5-5~~~~~~-|-5-5~~~~~~-|-9-9~~~~~~-|-7-7~~~~~~-|(Keep strumming last chord)
|-x-x-------|-3-3~~~~~~-|-7-7~~~~~~-|-8-8~~~~~~-|
|-5-5~~~~~~-|-----------|-----------|-----------|

Order:
Intro/Verse x4
Verse 2 x2
Intro/Verse x2
Chorus x4
Intro/Verse x4
Chorus x4
outro x1
Tap to rate this tab
# A B C D E F G H I J K L M N O P Q R S T U V W X Y Z