Song name
# A B C D E F G H I J K L M N O P Q R S T U V W X Y Z

Fall Out Boy - My Heart Is The Worst Kind Of Weapon tab

I haven't found any tabs for the demo version of this song, only acoustic tabs. So
I thought i'd tab the demo version (:

Drop D ; DADGBE

(0:00 - 0:35)
E|-----------------------------------------------|
B|-----------------------------------------------|
G|--55---555---555---555---999---999---9-9-------|
D|--55---555---555---555---999---999---1010---4x-|
A|--00---000---033---333---777---777---8-8-------|
D|-----------------------------------------------|

(0:35 - 0:52)
E|-----------------------------------------------|
B|-----------------------------------------------|
G|---------------5557777777-10-10-10-10-10-10-10-|
D|--7777777-555--5557777777-10-10-10-10-10-10-10-|
A|--7777777-555--3335555555-8--8--8--8--8--8--8--|
D|--7777777-555----------------------------------|

(00:52 - 1:06)
E|-----------------------------------------------|
B|-----------------------------------------------|
G|--55---555---555---555---999---999---9-9-------|
D|--55---555---555---555---999---999---1010---4x-|
A|--00---000---033---333---777---777---8-8-------|
D|-----------------------------------------------|

(1:06 - 1:39)
Rhythm Guitar
E|-----------------------------------------|
B|-----------------------------------------|
G|-----------------------------------------|
D|-3-3-3-3-3-3-3-10-10-10-10-10-7-7-7-7-4x-|
A|-3-3-3-3-3-3-3-10-10-10-10-10-7-7-7-7----|
D|-3-3-3-3-3-3-3-10-10-10-10-10-7-7-7-7----|

Lead Guitar
E|--------------|
B|--------------|
G|-12----9------|
D|----10---10---|
A|--------------|
D|--------------|

(1:54 - 2:11)
Rhythm Guitar
E|-----------------------------------------------|
B|-----------------------------------------------|
G|--55---555---555---555---999---999---9-9-------|
D|--55---555---555---555---999---999---1010---2x-|
A|--00---000---033---333---777---777---8-8-------|
D|-----------------------------------------------|

Lead Guitar
E|--------------------------------|
B|--------------------------------|
G|--5~--9~--7~--10-9--------------|
D|--5~--9~--7~--10-10-------------|2x
A|--3~--7~--5~--8--8--------------|
E|--------------------------------|

(2:11 - 2:44)
Rhythm Guitar
E|-----------------------------------------|
B|-----------------------------------------|
G|-----------------------------------------|
D|-3-3-3-3-3-3-3-10-10-10-10-10-7-7-7-7-4x-|
A|-3-3-3-3-3-3-3-10-10-10-10-10-7-7-7-7----|
D|-3-3-3-3-3-3-3-10-10-10-10-10-7-7-7-7----|

Lead Guitar
E|--------------|
B|--------------|
G|-12----9------|
D|----10---10---|
A|--------------|
D|--------------|

Breakdown (2:51 - end)
          PM ------------------|
E|-----------------------15----|
B|-------------------------15--|
G|-----------------------------|
D|-----2-----------------------|
A|-----2--22222-222-222--------|
D|-----2--22222-222-222--------|

E|--------------------------------|
B|--------------------------------|
G|--5~--9~--7~--10-9--------------|
D|--5~--9~--7~--10-10-------------|let ring so much that feedback is all up in your face
A|--3~--7~--5~--8--8--------------|
E|--------------------------------|
Tap to rate this tab
# A B C D E F G H I J K L M N O P Q R S T U V W X Y Z