Song name
# A B C D E F G H I J K L M N O P Q R S T U V W X Y Z

Falling In Reverse - Champion tab

-------------------------------------------------------------------------------
                             Champion- Falling in Reverse
-------------------------------------------------------------------------------
Tabbed by: bmh62695
E-mail: bmh62695@yahoo.com

Tuning: Drop C

Intro & Verse
 
e|---------------------------------------------------------------------------|
B|---------------------------------------------------------------------------|
G|--------------------------------3p0-2p0--------------3p0-2p0---------------|
D|--3p0----------3p0-2p0---------------------------3p0---------3p0-2-2-------|
A|---------------------------------------------------------------------------|
E|-------0-0000-----------0-0000-----------0-0000----------------------------|

End with a lot of pm on

e|---------------------------------------------------------------------------|
B|---------------------------------------------------------------------------|
G|---------------------------------------------------------------------------|
D|--7------------------------------------------------------------------------|
A|--7------------------------------------------------------------------------|
E|--7------------------------------------------------------------------------|



Pre-Chorus

e|---------------------------------------------------------------------------|
B|---------------------------------------------------------------------------|
G|---------------------------------------------------------------------------|
D|------------------------------------------10-8-7---------------------------|
A|------8-7-10-10-----8-7-5-5-----8-7-10-10--------10-8-7-5-5----------------|
E|--7-7-----------5-5---------7-7--------------------------------------------|

The second time end it with

e|---------------------------------------------------------------------------|
B|---------------------------------------------------------------------------|
G|---------------------------------------------------------------------------|
D|---------------------------------------------------------------------------|
A|------8-----10-------------------------------------------------------------|
E|--7-7---8-8----------------------------------------------------------------|


Chorus

e|---------------------------------------------------------------------------|
B|---------------------------------------------------------------------------|
G|-----------5-7-------------------------------------------------------------|
D|--0--8--3--5-7-------------------------------------------------------------|
A|--0--8--3--3-5-------------------------------------------------------------|
E|--0--8--3------------------------------------------------------------------|

Verse 

Pre-chorus

Chorus 

Let him kill it

BREAKDOWN

e|---------------------------------------------------------------------------|
B|---------------------------------------------------------------------------|
G|---------------------------------------------------------------------------|
D|---------------------------------------------------0-0-0--0-0-0------------|
A|---------------------------------------------------0-0-0--0-0-0------------|
E|--000-000-000-000-000-000-00-000-00-000-00-000-3+--0-0-0--0-0-0-3+---------|


E|---------------------------------------------------------------------------|
B|---------------------------------------------------------------------------|
G|---------------------------------------------------------------------------|
D|--0-0-0-----0-0-0-----0-0-0------------------------------------------------|
A|--0-0-0-----0-0-0-----0-0-0------------------------------------------------|
E|--0-0-0-3+--0-0-0-3+--0-0-0-3+---------------------------------------------|

Last Chorus

e|---------------------------------------------------------------------------|
B|---------------------------------------------------------------------------|
G|-----------5-7-------------------------------------------------------------|
D|--0--8--3--5-7-------------------------------------------------------------|
A|--0--8--3--3-5-------------------------------------------------------------|
E|--0--8--3------------------------------------------------------------------|

End chorus with

e|---------------------------------------------------------------------------|
B|---------------------------------------------------------------------------|
G|---------------------------------------------------------------------------|
D|--33--555--33--777--33--555--33--777---------------------------------------|
A|--33--333--33--555--33--333--33--555---------------------------------------|
E|--33-------33-------33-------33--------------------------------------------|

Breakdown pattern on outro


************************************

| /   slide up
| \   slide down
| h   hammer-on
| p   pull-off
| ~   vibrato
| +   harmonic
| x   Mute note
| b   Bend
| pb  Pre-bend
| br  Bend release
| pbr Pre-bend release
| brb Bend release bend

************************************
Tap to rate this tab
# A B C D E F G H I J K L M N O P Q R S T U V W X Y Z