Song name
# A B C D E F G H I J K L M N O P Q R S T U V W X Y Z

Falling In Reverse - Goddamn tab

-------------------------------------------------------------------------------
                             Goddamn-Falling in Reverse
-------------------------------------------------------------------------------

This is the guitar tab for Goddamn by Falling in Reverse. This song is on their new 
album fashionably late, which I really like. This tab is missing the solo, as I am still 
working on it. As soon as I get it done, I will put it up. My youtube is 
http://www.youtube.com/channel/UCfvjnOjnkomKgEFPsI2hwNg/videos

I will soon be putting up a guitar cover of this song.



Intro

D|-----------------|
A|-----------------|
F|-----------------|
C|--9-7--0-5-9-7-0-|
G|--9-7--0-5-9-7---|
C|--9-7--0-5-9-7-0-|
        . .
Verse 1

D|-------------------------------------------------------|
A|--7-----7----------------------------------------------|
F|-----7-----7--9--7--9--7-----7-------------------------|
C|--------------------------9----X3----7-7-7-7-5-5-5-5---|
G|-------------------------------------7-7-7-7-5-5-5-5---|
C|-------------------------------------7-7-7-7-5-5-5-5---|

CHORUS

D|-----------------------------------------------------|
A|-----------------------------------------------------|
F|-----------------------------------------------------|
C|--0--0------0-0----5--5----5--5----9-----7-----5-----|
G|--0--0------0-0----5--5----5--5----9-X4--7-X4--5-----|X8
C|--0--0------0-0----5--5----5--5----9-----7-----5-----|

D|--------------|
A|--------------|
F|--------------|
C|--0--5--9--7--|
G|--0--5--9--7--|
C|--0--5--9--7--|
    .  .

Verse 2

D|------------------------------------------------------|
A|--7-----7---------------------------------------------|
F|-----7-----7--9--7--9--7-----7------------------------|
C|--------------------------9----X3----7-7-7-7-5-5-5-5--|
G|-------------------------------------7-7-7-7-5-5-5-5--|
C|-------------------------------------7-7-7-7-5-5-5-5--|

D|---------------------------------------|
A|---------------------------------------|
F|--------------------------------X3-----|
C|--0--0--0--0--0--5--5--5--5--5------7--|
G|--0--0--0--0--0--5--5--5--5--5------7--|
C|--0--0--0--0--0--5--5--5--5--5------7--|

    .  .  .  .  .  .  .  .  .  .

Chorus 2


D|-----------------------------------------------------|
A|-----------------------------------------------------|
F|-----------------------------------------------------|
C|--0--0------0-0----5--5----5--5----9-----7-----5-----|
G|--0--0------0-0----5--5----5--5----9-X4--7-X4--5-----|X8
C|--0--0------0-0----5--5----5--5----9-----7-----5-----|



Solo(working on it still)

D|-----------------------------------------|
A|--/17--15--14----------------------------|
F|--------------14--------------------14---|
C|------------------16-----------/12-------|
G|----------------------17--12-------------|
C|-----------------------------------------|


E|--------------------------|
B|--------------------------|
G|--------------------------|
D|--9--9-----7--7-----5--5--|
A|--9--9-----7--7-----5--5--|
E|--9--9-----7--7-----5--5--|

*Repeat chorus

D|--------------|
A|--------------|
F|--------------|
C|--0--5--9--7--|
G|--0--5--9--7--|
C|--0--5--9--7--|
    .  .
Tap to rate this tab
# A B C D E F G H I J K L M N O P Q R S T U V W X Y Z