Song name
# A B C D E F G H I J K L M N O P Q R S T U V W X Y Z

Family - Burlesque tab

 -------------------------------------------------------------------------------
			     BURLESQUE - Family
-------------------------------------------------------------------------------
Tabbed by: Ian Ferguson


Tuning:	Guitar 1: Open G Capo on 7th fret
Tuning: Guitar 2: Standard tuning, no capo

If I'm right, there are two distinct guitar parts. The main riff is played in
open G and doubled on a guitar in standard tuning (indicated by "played with 
first guitar").

There are parts where the standard tuning guitar plays by itself, as indicated
("solo riff"). 





	Intro
     1st Guitar

d|-------3---5--2--------------2/3--2--0-------------------------------------|
B|---0---0---0--0---------1----0----0--0---1--0------------------------------|
G|---0--------------5--0--0----2/3--2--0---0--0------------------------------|
D|------------------3--3--3----------------3--0---3/5---3~-------------------|
G|---0--------------------------------------------0-----0--------------------|
D|---------------------------------------------------------------------------|

    2nd Guitar (played with first guitar)

e|---------------------------------------------------------------------------|
B|---7---7---7--7h8-7-----7h8--7---7---7--7h8-7------------------------------|
G|---7---7---7--7---7--7--7----7---7---7--7---7---7-----5~-------------------|
D|---7---7---7--7---7--10-10---7---7---7--7---7---10----5~-------------------|
A|---------------------------------------------------------------------------|
E|---------------------------------------------------------------------------|


      1st Guitar

d|-------3----5--2--------------2/3--2--0------------------------------------|
B|---0---0----0--0---------1----0----0--0---1--0-----------------------------|
G|---0---------------5--0--0----2/3--2--0---0--0-----------------------------|
D|-------------------3--3--3----------------3--0---3/5---3-2-0---------------|
G|---0---------------------------------------------0-----0-0-x---------------|
D|----------------------------------------------------------/3---------------|



     2nd Guitar (played with first guitar)
e|---------------------------------------------------------------------------|
B|---7---7---7--7h8-7-----7h8--7---7---7--7h8-7------------------------------|
G|---7---7---7--7---7--7--7----7---7---7--7---7---7-----5-4--2---------------|
D|---7---7---7--7---7--10-10---7---7---7--7---7---10----5-5--3---------------|
A|---------------------------------------------------------------------------|
E|--------------------------------------------------------3--1---------------|






   Oh Rollin' and tumblin' ain't done me no harm been go di da di di di di doo
d|---------------------------------------------------------------------------|
B|--------------------------------------------------------1--0---------------|
G|-0-2--2--0-------------------2-2-2--0--2--0--2----------0--0--2--0---------|
D|-2-4--4--2---2-4---------2/4---4-4--2--4--2--4---2--4---------4--4---------|
G|-------------0-2--0--2---------------------------0--2----------------------|
D|------------------2--4-----------------------------------------------------|



 Rita and Greta been twistin' my arm into heading out west down to the Burlesque

d|---------------------------------------------------------------------------|
B|-------------------------------------1-0------------------1-0--------------|
G|-0-2--2--0----------------------2---------2--0-------2--------2--0---------|
D|-2-4--4--2--2--4-------------3----4---------------3-----4------------------|
G|------------0--2------------------2---------------------2------------------|
D|-------------------0-1-2--3---------------------3--------------------------|

   Go savin' my ace through to you-ooo

d|---------------------------------------------------------------------------|
B|--------------------------------------------------------4------7-----------|
G|------2----5-2----2-------3-------5--3-----3-4-------4---------------------|
D|---3----3-------3------------5----------5--------2/4------7/9----------9---|
G|-----------------------------------------------------------------9/11------|
D|-3-------------------5-----------------------------------------------------|



      1st guitar

d|-------3---5--2--------------2/3--2--0-------------------------------------|
B|---0---0---0--0---------1----0----0--0---1--0------------------------------|
G|---0--------------5--0--0----2/3--2--0---0--0------------------------------|
D|------------------3--3--3----------------3--0---3/5---3~-------------------|
G|---0--------------------------------------------0-----0--------------------|
D|---------------------------------------------------------------------------|

     2nd Guitar (played with 1st guitar)

e|---------------------------------------------------------------------------|
B|---7---7---7--7h8-7-----7h8--7---7---7--7h8-7------------------------------|
G|---7---7---7--7---7--7--7----7---7---7--7---7---7-----5~-------------------|
D|---7---7---7--7---7--10-10---7---7---7--7---7---10----5~-------------------|
A|---------------------------------------------------------------------------|
E|---------------------------------------------------------------------------|


     Ist guitar

d|-------3----5--2--------------2/3--2--0------------------------------------|
B|---0---0----0--0---------1----0----0--0---1--0-----------------------------|
G|---0---------------5--0--0----2/3--2--0---0--0-----------------------------|
D|-------------------3--3--3----------------3--0---3/5---3-2-0---------------|
G|---0---------------------------------------------0-----0-0-x---------------|
D|----------------------------------------------------------/3---------------|

     2nd Guitar (played with 1st guitar)

e|---------------------------------------------------------------------------|
B|---7---7---7--7h8-7-----7h8--7---7---7--7h8-7------------------------------|
G|---7---7---7--7---7--7--7----7---7---7--7---7---7-----5-4--2---------------|
D|---7---7---7--7---7--10-10---7---7---7--7---7---10----5-5--3---------------|
A|---------------------------------------------------------------------------|
E|--------------------------------------------------------3--1---------------|






   Well I'm sinking and sinking I'm feeling alright right down to my snakey 
   spat shoe
d|---------------------------------------------------------------------------|
B|-------------------------------0----------------------1--0-----------------|
G|-0-2--2--0-------------------2-2-2--0--2--0-----------0--0--2--0-----------|
D|-2-4--4--2---2-4-------------4---4--2--4--2-----2-4---------4--4-----------|
G|-------------0-2--0--2--------------------------0-2------------------------|
D|------------------2--4-----------------------------------------------------|


   It's just about shut-down and three in the night because I'm heading down 
   west down to the Burlesque
d|---------------------------------------------------------------------------|
B|-------------------------------------------1-0---------------------1-0-----|
G|-0-2--2--0--------------------------2------------2--0--------2----------2-0|
D|-2-4--4--2--2--4-----------------3-----4-----------------3------4----------|
G|------------0--2-----------------------2------------------------2----------|
D|-------------------0-1-2-3----3------------------------3-------------------|


     Towing the moon at the doo-oor
d|---------------------------------------------------------------------------|
B|--------------------------------------------------------4------7-----------|
G|------2----5-2----2-------3-------5--3-----3-4-------4---------------------|
D|---3----3-------3------------5----------5--------2/4-------6/9----------9--|
G|------------------------------------------------------------------8/11-----|
D|-3-------------------5-----------------------------------------------------|

                          
d|----------------------------------------------------10-10-x-x-10-10-x-x-10-|
B|-----------------------------1-1--1--1---0-0-0------7--7--x-x-7--7--x-x-7--|
G|-----------------------------2-2--2--2---0-0-0--2---7--7--x-x-7--7--x-x-7--|
D|-----------------------------4-4--4--4---4-4-4--4---7--7--x-x-7--7--x-x-7--|
G|-----5--7--4------------------------------------2--------------------------|
D|--4-----------5--0--3b4~---------------------------------------------------|
                                                                       

G|---------------------------------------------------------------------------|
G|---------------------------------------------------------------------------|
G|-----------------------------------------2---------------------------------|
D|--------------------------------------3-----3--2--0------5~--7~--8~--------|
D|-----5--7--4-----------------------------------------4---------------------|
D|--4-----------5--0--3b4~---------------------------------------------------|



   2nd guitar (solo riff)

e|---------------------------------------------------------------------------|
B|---------------------------------------------------------------------------|
G|---------------------------------------------------------------------------|
D|--3-3--3-3---3-3-----------3--5p3-5b7b5------------------------------------|
A|--3-3--3-3---3-3-------3h5-------------------------------------------------|
E|--0-1--0-1---0-1--3/5------------------------------------------------------|



  Oh-uh   rol-ling   tumb-ling  sure ain't done me no harm

G|-7---7------5-----5-----5--5-------3-3----7--------------------------------|
G|-7---7------5-----5-----3--3-------3-3----7--------------------------------|
G|-7---7------5-----5-----4--4-------3-3----7--------------------------------|
D|-7---7------5-----5-----5--5-------3-3----7--------------------------------|
G|-7---7------5-----5-----0--0-------3-3----7--------------------------------|
D|---------------------------------------------------------------------------|

     second guitar (solo riff)
   

     
e|---------------------------------------------------------------------------|
B|---------------------------------------------------------------------------|
G|---------------------------------------------------------------------------|
D|---------------------------------------------------------------------------|
A|-----------------------------------------------------0--1/3---------------|
E|---------------------------------------------0-1-2-3---------5~-----------|


    Drinking sinking it's just been too bad on my own

G|-7---7------5-----5-----5-5--------3-3----7--------------------------------|
G|-7---7------5-----5-----3-3--------3-3----7--------------------------------|
G|-7---7------5-----5-----4-4--------3-3----7--------------------------------|
D|-7---7------5-----5-----5-5--------3-3----7--------------------------------|
G|-7---7------5-----5-----0-0--------3-3----7--------------------------------|
D|---------------------------------------------------------------------------|

  second guitar (solo riff)

e|---------------------------------------------------------------------------|
B|---------------------------------------------------------------------------|
G|---------------------------------------------------------------------------|
D|----------------------------------------------3/4-5/6-7/10--7--------------|
A|----------------------------------------------3/4-5/6-7/10--7--------------|
E|--------------------------------------------0-1/2-3/4-5/8---5--------------|

                           


   Hey my father lost Rita and Greta went home I guess that leave me and you
d|-----------------------------------------------------------------------------|
B|--------------------------------0-------------------------1--0---------------|
G|-0-2-2--2--0----------------2-2-2--2--0--2--0-------------0--0--2--0---------|
D|-2-4-4--4--2---2-4----------4-4----4--2--4--2------2--4---------4--4---------|
G|---------------0-2--0--2---------------------------0--2----------------------|
D|--------------------2--4-----------------------------------------------------|



  Well I bin' kind of sneaky to get you alone whoah but you in that dress 
  destination Burlesque

d|---------------------------------------------------------------------------|
B|-------------------------------------1-0------------------1-0--------------|
G|-0-2--2--0----------------------2---------2--0-------2--------2--0---------|
D|-2-4--4--2--2--4-------------3----4---------------3-----4------------------|
G|------------0--2------------------2---------------------2------------------|
D|-------------------0-1-2--3---------------------3--------------------------|


   I got all my cards in one shoe

d|---------------------------------------------------------------------------|
B|--------------------------------------------------------4------7-----------|
G|------2----5-2----2-------3-------5--3-----3-4-------4---------------------|
D|---3----3-------3------------5----------5--------2/4------7/9----------9---|
G|-----------------------------------------------------------------9/11------|
D|-3-------------------5-----------------------------------------------------|



d|---------------------------------------------------------------------------|
B|-----------------------------1-1--1--1---0-0-0-----------------------------|
G|-----------------------------2-2--2--2---0-0-0--2--------------------------|
D|-----------------------------4-4--4--4---4-4-4--4--------------------------|
G|-----5--7--4------------------------------------2--------------------------|
D|--4-----------5--0--3b4----------------------------------------------------|
                                                                         

d|---------------------------------------------------------------------------|
B|---------------------------------------------------------------------------|
G|-----------------------------------------2---------------------------------|
D|--------------------------------------3-----3--2--0------5v--7v--8v--------|
G|-----5--7--4-----------------------------------------4---------------------|
D|--4-----------5--0--3b4----------------------------------------------------|



   2nd guitar (solo riff)

e|---------------------------------------------------------------------------|
B|---------------------------------------------------------------------------|
G|---------------------------------------------------------------------------|
D|--3-3--3-3---3-3-----------3--5p3-5b7b5------------------------------------|
A|--3-3--3-3---3-3-------3h5-------------------------------------------------|
E|--0-1--0-1---0-1--3/5------------------------------------------------------|



   We-ell rol-ling   tumb-ling  sure ain't done me no harm

G|-7---7------5-----5-----5-5---------3-3-----7------------------------------|
G|-7---7------5-----5-----3-3---------3-3-----7------------------------------|
G|-7---7------5-----5-----4-4---------3-3-----7------------------------------|
D|-7---7------5-----5-----5-5---------3-3-----7------------------------------|
G|-7---7------5-----5-----0-0---------3-3-----7------------------------------|
D|---------------------------------------------------------------------------|


     second guitar (solo riff)

e|---------------------------------------------------------------------------|
B|---------------------------------------------------------------------------|
G|---------------------------------------------------------------------------|
D|---------------------------------------------------------------------------|
A|------------------------------------------------------0--1/3---------------|
E|---------------------------------------------0-1-2--3---------5~-----------|


   I said drinking sinking just been too bad on my own

G|-7---7------5-----5-----5-5---------3-3-----7------------------------------|
G|-7---7------5-----5-----3-3---------3-3-----7------------------------------|
G|-7---7------5-----5-----4-4---------3-3-----7------------------------------|
D|-7---7------5-----5-----5-5---------3-3-----7------------------------------|
G|-7---7------5-----5-----0-0---------3-3-----7------------------------------|
D|---------------------------------------------------------------------------|



  second guitar (solo riff)

e|---------------------------------------------------------------------------|
B|---------------------------------------------------------------------------|
G|---------------------------------------------------------------------------|
D|----------------------------------------------3/4-5/6-7/10--7--------------|
A|----------------------------------------------3/4-5/6-7/10--7--------------|
E|--------------------------------------------0-1/2-3/4-5/8---5--------------|


   My father lost Rita and Greta went home I guess that just leaves me and you

d|---------------------------------------------------------------------------|
B|---------------------------------------------------------------------------|
G|-0-2--2--0-------------------2-2-0-2--0--------0---------------------------|
D|-2-4--4--2---2-4-------------4-4-2-4--2--2--4-----4---2---4----------------|
G|-------------0-2--0--2-------------------0--2---------0---2----------------|
D|------------------2--4-----------------------------------------------------|


   I bin' kind of sneaky to get you alone oh babe but you in that dress 
   destination Burlesque
 
d|---------------------------------------------------------------------------|
B|------------------------------------------1-0---------------------1-0------|
G|--2--2--0------------------------2------------2--0--------2----------2-0---|
D|--4--4--2--2--4-----------------3-----4-----------------3------4-----------|
G|-----------0--2----------------------2------------------------2------------|
D|------------------0-1-2-3----3------------------------3--------------------|


   Said I got all my cards in one shoe

d|---------------------------------------------------------------------------|
B|--------------------------------------------------------4------7-----------|
G|------2----5-2----2-------3-------5--3-----3-4-------4---------------------|
D|---3----3-------3------------5----------5--------2/4-------6/9----------9--|
G|------------------------------------------------------------------8/11-----|
D|-3-------------------5-----------------------------------------------------|


                          I got all my cards in one shoe
d|---------------------------------------------------------------------------|
B|-----------------------------1-1--1--1---0-0-0-----------------------------|
G|-----------------------------2-2--2--2---0-0-0--2--------------------------|
D|-----------------------------4-4--4--4---4-4-4--4--------------------------|
G|-----5--7--4------------------------------------2--------------------------|
D|--4-----------5--0--3b4----------------------------------------------------|
                                                                         
                          I got all my cards in one shoe
d|---------------------------------------------------------------------------|
B|---------------------------------------------------------------------------|
G|----------------------------------2----------------------------------------|
D|-------------------------------3-----3--2--0-------------------------------|
G|-----5--7--4----------------------------------4----------------------------|
D|--4-----------5--0--3b4---------------------------0---3---5~---------------|



         2nd guitar(played with first guitar)
                  fade out
e|---------------------------------------------------------------------------|
B|---------------------------------------------------------------------------|
G|------------------------------------------------------5--------------------|
D|--------------------------------------------------7---5---3--3--3-3--3--3--|
A|--------------------------------------------------7---3---3--3--3-3--3--3--|
E|--------------------------------------------------5-------1--0--1-0--1--0--|




| /  slide up
| \  slide down
| h  hammer-on
| p  pull-off
| ~  vibrato
| +  harmonic
| x  Mute note
===============================================================================
Tap to rate this tab
# A B C D E F G H I J K L M N O P Q R S T U V W X Y Z