Song name
# A B C D E F G H I J K L M N O P Q R S T U V W X Y Z

Feed The Rhino - Tides tab

Tides by Feed the Rhino - most of this was figured out by GuitarHer020, I just 
corrected it to what (I think) is correct, so credit where credit is due - cheers dude :)

D|------------------------------------------------------------------------|
A|------------------------------------------------------------------------|
F|------7-----7--7--10-10--7--5--5--7-----------7-----7-----------7-----7-|
C|------x-----x--x---x--x--x--x--x--x-----------x-----x-----------x-----x-|
G|-5-5--5--5--5--5---8--8--5--3--5--5--5--5--5--5--5--5--5--5--5--5--5--5-|
C|------------------------------------------------------------------------|x3

D|-------------------------------------------------------------------------|
A|-------------------------------------------------------------------------|
F|------7-----7--7--10-10--7--5--5--7--7--7--7--7--7--7--7--7--7--7--7-----|
C|------x-----x--x---x--x--x--x--x--x--x--x--x--x--x--x--x--x--x--x--x--12\|
G|5--5--5--5--5--5---8--8--5--3--3--5--5--5--5--5--5--5--5--5--5--5--5--12\|
C|----------------------------------------------------------------------12\|

D|----------------------------------------------------------|
A|----------------------------------------------------------|
F|-----7--7--7-10-10--7---5--5--7---------------------------|
C|-0---x--x--x--x--x--x---x--x--x---3---3-3-3-6---6-6-6-----|
G|-0---5--5--5--8--8--5---3--3--5---3---3-3-3-6---6-6-6-----|
C|-0--------------------------------3---3-3-3-6---6-6-6-----|

D|----------------------------------------------------------|
A|----------------------------------------------------------|
F|-----7--7--7-10-10--7---5--5--7---------------------------|
C|-0---x--x--x--x--x--x---x--x--x---------------------------|
G|-0---5--5--5--8--8--5---3--3--5-----5---------5-3-3-2-2-3-|
C|-0--------------------------------6---6-5-3-0---3-3-2-2-3-|

D|----------------------------------------------------------|
A|----------------------------------------------------------|
F|-----7--7--7-10-10--7---5--5--7---------------------------|
C|-0---x--x--x--x--x--x---x--x--x---3---3-3-3-6---6-12\-----|
G|-0---5--5--5--8--8--5---3--3--5---3---3-3-3-6---6-12\-----|
C|-0--------------------------------3---3-3-3-6---6-12\-----|

D|----------------------------------------------------------|
A|----------------------------------------------------------|
F|-----7--7--7-10-10--7---5--5--7---------------------------|
C|-0---x--x--x--x--x--x---x--x--x---------------------------|
G|-0---5--5--5--8--8--5---3--3--5-----5---------5-3-3-2-2-3-|
C|-0--------------------------------6---6-5-3-0---3-3-2-2-3-|

D|------------------------------------|
A|------------------------------------|
F|-----12-12\------12-12\-------------|
C|-0----x--x---0----x--x---xx-6-xx-6--|
G|-0---10-10\--0---10-10\--xx-6-xx-6--| x2
C|-0-----------0-----------xx-6-xx-6--|
                             

D|----------------------------------------|
A|----------------------------------------|
F|-------12-12\--------12-12\-------------|
C|-0-0-0--x--x---0-0-0--x--x---xx-6-xx-6--|
G|-0-0-0-10-10\--0-0-0-10-10\--xx-6-xx-6--|
C|-0-0-0---------0-0-0---------xx-6-xx-6--|
                                 ..  ..

D|-----------------------------------------|
A|-----------------------------------------|
F|-------12-12--------12-12-12-12-12-12-12-|
C|-0-0-0--x--x--0-0-0--x--x--x--x--x--x--x-|
G|-0-0-0-10-10--0-0-0-10-10-101-1-|
C|-0-0-0--------0-0-0----------------------|

D|-------------------13-----------------|
A|-13-15-15-13-15-13----13-15--15~------|
F|--------------------------------------|
C|--------------------------------------|
G|--------------------------------------|
C|--------------------------------------|x3

D|----18-18-18-13-13-13-17-17-17-17-17--|
A|--------------------------------------|
F|--------------------------------------|
C|--------------------------------------|
G|--------------------------------------|
C|--------------------------------------| Repeat those last two twice

D|----------------------------------------------------------|
A|----------------------------------------------------------|
F|-----7--7--7-10-10--7---5--5--7---------------------------|
C|-0---x--x--x--x--x--x---x--x--x---3---3-3-3-6---6-6-6-----|
G|-0---5--5--5--8--8--5---3--3--5---3---3-3-3-6---6-6-6-----|
C|-0--------------------------------3---3-3-3-6---6-6-6-----|

D|----------------------------------------------------------|
A|----------------------------------------------------------|
F|-----7--7--7-10-10--7---5--5--7---------------------------|
C|-0---x--x--x--x--x--x---x--x--x---------------------------|
G|-0---5--5--5--8--8--5---3--3--5-----5---------5-3-3-2-2-3-|
C|-0--------------------------------6---6-5-3-0---3-3-2-2-3-|

D|----------------------------------------------------------|
A|----------------------------------------------------------|
F|-----7--7--7-10-10--7---5--5--7---------------------------|
C|-0---x--x--x--x--x--x---x--x--x---3---3-3-3-6---6-12\-----|
G|-0---5--5--5--8--8--5---3--3--5---3---3-3-3-6---6-12\-----|
C|-0--------------------------------3---3-3-3-6---6-12\-----|

D|----------------------------------------------------------|
A|----------------------------------------------------------|
F|-----7--7--7-10-10--7---5--5--7---------------------------|
C|-0---x--x--x--x--x--x---x--x--x---------------------------|
G|-0---5--5--5--8--8--5---3--3--5-----5---------5-3-3-2-2-3-|
C|-0--------------------------------6---6-5-3-0---3-3-2-2-3-|

Slow down on the end bit.

Any further notes are on the other version, if you so wish.
Tap to rate this tab
# A B C D E F G H I J K L M N O P Q R S T U V W X Y Z