Song name
# A B C D E F G H I J K L M N O P Q R S T U V W X Y Z

Feine Sahne Fischfilet - Geschichten Aus Jarmen tab

Geschichten aus Jarmen - Feine Sahne Fischfilet

Tuning: Standart


Intro:
|--------------------------------------|
|-5-------5-------5-------5-------5~---|
|-5-6-5-2-5-6-5-2-5-6-5-2-5-6-5-2-5~---|
|-5-5-7-3-5-5-7-3-5-5-7-3-5-5-7-3-5~---|
|-3-5-7-3-3-5-7-3-3-5-7-3-3-5-7-3-3~---|
|---3-5-1---3-5-1---3-5-1---3-5-1------|


Vers 1:
|------------------|
|------------------|
|-55----77---------|
|-55-55-77-33333---|
|-33-55-55-33333---|
|----33----11111---|


Refrain:
|------------------------------------|
|------------------------------------|
|-55555555---------------------------|
|-55555555555555557777777733333333---|
|-33333333555555557777777733333333---|
|---------333333335555555511111111---|


Vers 2:
|--------------------------------------------|
|--------------------------------------------|
|-55555555--------777777771010101010101010---|
|-5555555555555555777777771010101010101010---|
|-3333333355555555555555558-8-8-8-8-8-8-8----|
|---------33333333---------------------------|


Bridge:
|--------------  -----------------------------------  ---|
|--------------  -----------------------------------  ---|
|-5~-----------2x-55555555--------------------------2x---|
|-5~-5~-7~-3~--  -55555555555555557777777733333333--  ---|
|-3~-5~-7~-3~--  -33333333555555557777777733333333--  ---|
|----3~-5~-1~--  ---------333333335555555511111111--  ---|



Corrections to: domi.gitarre@web.de

Love, peace & respect
BennxLody
Tap to rate this tab
# A B C D E F G H I J K L M N O P Q R S T U V W X Y Z