Song name
# A B C D E F G H I J K L M N O P Q R S T U V W X Y Z

Fiction Family - Betrayal tab

Help us improve GuitareTab! Take a short survey!
----------------------------------------------------------------------------
		                  Betrayal- Fiction Family
-----------------------------------------------------------------------------

Listen to the song for the timing. it is farely easy. if you see a mistake, comment 
and i will fix it.

Tuning:EADGBe

Intro/Verse:
"I don't remember much about that night........"
e|-------------------------------------|
B|-------------------------------------|
G|-----7-7---7-7----7-7---7-7----------|
D|------7-----7------7-----7-----------|
A|--5------5------5------5-------------|
E|-------------------------------------|
          ^ Repeat this through the first half of the verse

Second half of Verse:
"I thinked it rained... I think it rained......"
      e|---------------|----------------------|
      B|---------------|----------------------|
      G|----------7-7--|-----------------7-7--|
      D|-----------7---|------------------7---|
      A|--5~-7~--5-----|---------5~-7~--5-----|
      E|--3~-5~--------|---------3~-5~--------|

"I'm pretty sure it rained the day I died........"
      e|---------------|
      B|---------------|
      G|----------7-7--|
      D|--4~-------7---|
      A|--2~-7~--5-----|
      E|-----5~--------|
So continue on with that pattern until the bridge:

"Someone always wins....."
e|---------------------------|
B|----3----------------------|
G|---4-4----6------7-----4---|
D|---------7-7----7-7---5-5--|
A|--2-----------5------------|
E|--------5-----------3------|

"and then they write a book.........."
e|------------------------------------|
B|------------------------------------|
G|----4----4----6----6----7----6------|
D|---5-5--5-5--7-7--7-7--7-7--7-7-----|
A|------------------------------------|
E|--3----3----5----5----5----5--------|


"I've sing my defense.........."
e|---------------------------|
B|----3----------------------|
G|---4-4----6------7-----4---|
D|---------7-7----7-7---5-5--|
A|--2-----------5------------|
E|--------5-----------3------|

"Fingering a different crook...."
e|------------------------|
B|--------------3~~-------|
G|--3~~-2~~-1~~-3~~-------|
D|--4~~-3~~-2~~-3~~-------|
A|--4~~-3~~-2~~-----------|
E|--2~~-1~~---------------|

Then Verse x1

Then Outro Verse
"but i watched her as you put me in the dirt, she had my wallet wrapped inside her skirt....."
e|--------------------------------|
B|--------------------------------|
G|---7~~~~~~~7~~~~7~~~~~7~~~~~----|
D|---7~~~~~~~7~~~~7~~~~~7~~~~~----|
A|---5~~~~~~~5~~~~5~~~~~5~~~~~----|
E|--------------------------------|
         "and i went numb, i went numb....."
      e|---------------|----------------------|
      B|---------------|----------------------|
      G|----------7-7--|-----------------7-7--|
      D|-----------7---|------------------7---|
      A|--5~-7~--5-----|---------5~-7~--5-----|
      E|--3~-5~--------|---------3~-5~--------|

"so i'm not dead if what you did don't hurt...."
      e|---------------------------|
      B|---------------------------|
      G|----------7-7--7-7--7~~~~~~|
      D|--4~-------7----7---7~~~~~~|
      A|--2~-7~--5----5-----5~~~~~~|
      E|-----5~--------------------|

| /  slide up
| \  slide down
| h  hammer-on
| p  pull-off
| ~  vibrato
| +  harmonic
| x  Mute note
=============================================================================
Related for Betrayal tab