Song name
# A B C D E F G H I J K L M N O P Q R S T U V W X Y Z

Fidlar - Got No Money tab

I saw that there were no tabs of this song, so I decided to make one (which also
happens to be my first tab). This is basically the whole song.

FIDLAR: Got No Money
from the EP Don't Try
track: 4
tuning: Standard
tabbed by Bianca

e|----------------------------------------------------------------------|
B|----------------------------------------------------------------------|
G|---5-5-5-5-5-5---8-8---10-10-10-10-10-10-10-8-10-10-10-10-10-10-------|
D|---6-6-6-6-6-6---9-9---11-11-11-11-11-11-11-9-11-11-11-11-11-11-------|
A|---6-6-6-6-6-6---9-9---11-11-11-11-11-11-11-9-11-11-11-11-11-11-------|
E|---4-4-4-4-4-4---7-7---9--9--9--9--9--9--9--7--9--9--9--9--9--9-------|

----------------------------------------|
----------------------------------------|
8-10-8-5-5-5-5-5-5-3-3-4----------------|
9-11-9-6-6-6-6-6-6-4-4-5----------------|
9-11-9-6-6-6-6-6-6-4-4-5----------------|
7--9-7-4-4-4-4-4-4-2-2-3----------------|     and just repeat that for the whole song.
Tap to rate this tab
# A B C D E F G H I J K L M N O P Q R S T U V W X Y Z