Song name
# A B C D E F G H I J K L M N O P Q R S T U V W X Y Z

Filicide - Believe In Me tab

Artist:FILICIDE
Song:Believe In Me

INTRO:

E]00000000000000000000000000000000000000000000000000000000------------
B]55555555666666665555555566667777555555556666666655555555------------
G]--------------------------------------------------------------------
D]---------------------------------------------------------1\5-1\7----
A]---------------------------------------------------------1\5-1\7----
E]---------------------------------------------------------1\5-1\7----

VERSE:

E]-----------------------------------------------
B]-----------------------------------------------
G]-----------------------------------------------
D]3-5-3\4-6\8------------------------------------
A]3-5-3\4-6\8------------------------------------
E]3-5-3\4-6\8------------------------------------

PRE-CHORUS:
(BASS)

[------------------------------------------------------------
[------------------------------------------------------------
[------------------------------------------------------------
[00000000000000000000000000000000000000000000000000000-------

CHORUS:

E]-----------------------------------------------
B]-----------------------------------------------
G]-----------------------------------------------
D]-----------------------------------------------
A]-12-12-12-12-12-12-12-12-12-12-12-12-9-10------
E]-10-10-10-10-10-10-10-10-10-10-10-10-7-8-------
 repeat 4x

BRIDGE/OUTRO

E]-----------------------------------------------
B]-----------------------------------------------
G]----------------------------7-6-5---7-6-5\-----
D]--------------------------5-7-6-5-5-7-6-5\-----
A]--5-4-3-5-4-3-5-4-3-5-4-3-5-5-4-3-5-5-4-3\-----
E]-3-----3-----3-----3------3-------3------------

1.INTRO
2.VERSE
3.PRE-CHORUS
4.CHORUS
5.VERSE
6.PRE-CHORUS
7.CHORUS
8.BRIDGE
9.CHORUS
10.OUTRO
====
Tap to rate this tab
# A B C D E F G H I J K L M N O P Q R S T U V W X Y Z