Song name
# A B C D E F G H I J K L M N O P Q R S T U V W X Y Z

Firm - Midnight tab

Excuse me if I sound arrogant for saying this, but I grew tired of seeing incorrect tabs
the intro of this song so I decided to tab it myself. This is a later work of Jimmy
and the fact that you're reading this means you're probably a bigger Page fan than 
Whatever, enjoy.

d|----12-----9--11-6~----7--9--6--4~----6--7--4--6~---|
a|----0------0--0--0~----0--0--0--0~----0--0--0--0~---|
G|----12-----7--9--4~----8--7--4--2~----4--8--2--4~---|
D|----14-----9--11-6~----7--9--6--4~----6--7--4--6~---|
A|----0------0--0--0~----0--0--0--0~----0--0--0--0~---|
D|-0--0------0--0--0~----0--0--0--0~----0--0--0--0~---|

d|--12-----9--11-6~----7--9--6--4~----6--7--4--6~---5-|
a|--0------0--0--0~----0--0--0--0~----0--0--0--0~---5-|
G|--12-----7--9--4~----8--7--4--2~----4--8--2--4~---0-|
D|--14-----9--11-6~----7--9--6--4~----6--7--4--6~---0-|
A|--0------0--0--0~----0--0--0--0~----0--0--0--0~---x-|
D|--0------0--0--0~----0--0--0--0~----0--0--0--0~---5-|
Tap to rate this tab
 
# A B C D E F G H I J K L M N O P Q R S T U V W X Y Z