Song name
# A B C D E F G H I J K L M N O P Q R S T U V W X Y Z

Firm - Desperados tab

(Intro)

The Firm - Desperados
h=hit
r=realease
Normal Tuning


e ------------------------------|
A ---5h6--6-6-6-6-6--6-5-3-5-3--|
B ------------------------------|
G ------------------------------|
D ------------------------------|
E ------------------------------|


e ---------------5--------------|
A ---6-5-6-6-5-6---6-5-5-6-3----|
B ------------------------------|
G ------------------------------|
D ------------------------------|
E ------------------------------|


e ---5-6-5h6r-------------------|
A-------------6-----------------|
B ------------------------------|
G ------------------------------|
D ------------------------------|
E ------------------------------|

By the BUTT BROTHERS
Tap to rate this tab
# A B C D E F G H I J K L M N O P Q R S T U V W X Y Z