Song name
# A B C D E F G H I J K L M N O P Q R S T U V W X Y Z

Five Finger Death Punch - White Knuckles tab

it's not 100% correct but its damn close.


INTRO:
|----------------------------------------------------------------------------------------|
|----------------------------------------------------------------------------------------|
|----------------------------------------------------------------------------------------|
|--11/12------11------9/10------7---------------11/12------11------9/10------7----------4|
|--11/12------11------9/10------7---------------11/12------11------9/10------7----------4|
|---9/10-0000--9-0000-7/8--0000-5-0000-54324321--9/10-0000--9-0000-7/8--0000-5-0000-54322|
PM       ....    ....      ....   .... ........       ....    ....      ....   .... ....


VERSE:
|------------------------------------------------------------|
|------------------------------------------------------------|
|------------------------------------------------------------|
|--3-3--2-2--3-3--2-2-------------3-3--2-2--3-3--2-2------4--|
|--3-3--2-2--3-3--2-2-------------3-3--2-2--3-3--2-2------4--|
|--1-1--0-0--1-1--0-0--54324321---1-1--0-0--1-1--0-0--54322--|
PM . .  . .  . .  . .  ........   . .  . .  . .  . .  ....


PRE-CHORUS:
|---------------------------------------------------------------|
|---------------------------------------------------------------|
|---------------------------------------------------------------|
|--11-12--9-11--7-9--5-7-----------11-12--9-11--7-9--5-7-----4--|
|--11-12--9-11--7-9--5-7-----------11-12--9-11--7-9--5-7-----2--|
|---9-10--7--9--5-7--3-5-54324321---9-10--7--9--5-7--3-5-54322--|
PM                       ........                        ....


CHORUS:
|-----------------------|
|-----------------------|
|-----------------------|
|-----2----3----4----5--|
|-----2----3----4----5--|
|--0000-1111-2222-3333--|
PM ...  ...  ...  ...


BREAKDOWN:
|-------------------------------------------------------|
|-------------------------------------------------------|
|-------------------------------------------------------|
|-------------------------------------------------------|
|-------------------------------------------------------|
|--00000000000000000000000000000000000000000000000000000|
PM .....................................................


INTERLUDE:
|-------------------------------|
|-------------------------------|
|-------------------------------|
|----------------------------4--|
|----------------------------4--|
|--3000-000200040003000-002002--|
PM .... ............... .....

Comments? Questions? Corrections? email me at redlineripper102@yahoo.com
Tap to rate this tab
# A B C D E F G H I J K L M N O P Q R S T U V W X Y Z