Guitaretab - guitar tabs
Song name
# A B C D E F G H I J K L M N O P Q R S T U V W X Y Z

Five Times August - Perfectly tab

Perfectly
Five Times August

Capo 4

      G    G/F#   Em7   E7   Cadd9   Am   Gsus  Gsus2  
[-----3-----3-----3-----3-----3-----0-----3-----3-----]
[-----3-----3-----3-----3-----3-----1-----3-----3-----]
[-----0-----0-----0-----0-----0-----2-----0-----0-----]
[-----0-----0-----2-----2-----2-----2-----0-----0-----]
[-----2-----0-----2-----0-----3-----0-----2-----3-----]
[-----3-----2-----0-----x-----0-----0-----x-----x-----]


Intro
      Part1                    Part 2
e|-----3-------3-----|       |-3-3-------------|
B|-------3---3---3---|       |-3-3-------------|
G|---0-----0---------|       |-0-0h2-0h2-------|
D|-------------------|   x 2 |-0---------4-----|  x 2
A|-3-----------------|       |-2---------------|
E|-------------------|       |-3---------------|

Part 3
e|-3-3---3-------|
B|-3-3---3-------|
G|-0-0---0-------|
D|-2-0h2-0h2-3---| x 2
A|-3-3---3-------|
E|---------------|

Intro (parts)
P1 Ė P2 Ė P3 Ė P2 - P3

Riff 1                              Riff 2
e|-2-3-|              Am formation and pull-off + hammer-on
                                 pointer finger
[ Tab from: http://www.guitaretab.com/f/five-times-august/176848.html ]
G
Youíre the centre of me (Riff 1)
G/F#	
And youíre the sinner in me (Riff 1)
Em7                  E7                            C9 Gsus2
A saint in the wait, but the weight keeps bringing me down 




G
And Iím the beggar of you (Riff 1)
G/F#       
Youíre taking me when you choose (Riff 1)
Em7                             E7                C9 Gsus2
My words of desire are going to set me on fire tonight 

Am (Riff 2)       Gsus   C9
Cause how you leaned on me 
Am (Riff 2)       Gsus   C9
And how youíd sing to me 
Am (Riff 2)       Gsus   C9
Thatís what you mean to me, 
And itís perfectly you 

Intro: P2 Ė P3 Ė P2 Ė P3

G
And Youíre the end of my nights, (Riff 1)
G/F#   
The starting thoughts at sunrise (Riff 2)
Em7                             E7                C9 Gsus2
Youíve got me changing but the same things are holding me back 

          Am (Riff 2)       
But what I do, itís all for you 
  Gsus                    C9
Itís understood you donít like the change 
          Am (Riff 2)       
But donít leave me out, I want you now 
  Gsus                    C9
Iím sorry how I canít turn you away 
       Am (Riff 2)       
But you mean so much, a priceless touch 
  Gsus                    C9
And I worry, when youíre not perfectly you  

Intro: P2 Ė P3 Ė P2 Ė P3

Outro: e|----------3--|
       B|----------3--|
       G|-4--2--0--0--|
       D|----------0--|
       A|----------2--|
       E|----------3--|
Related for Perfectly tab