Song name
# A B C D E F G H I J K L M N O P Q R S T U V W X Y Z

Fleetwood Mac - Rhiannon tab

Intro:
E-----------------------------------------|
B-----------------------------------------|
G----7---9---7----------------------------|
D-10-----------10-9-7---7-9-10--9-9-7-----|
A-----------------------------------------|
E-----------------------------------------|

E-----------------------------------------|
B-----------------------------------------|
G---------7-9---7-------------------------|
D-7-9/10----------10-9-7---7-9-10--9-9-7--|
A-----------------------------------------|
E-----------------------------------------|

(Lindsey Buckingham's lead guitar is pretty much all backgroung from this
point on behind Stevie Nicks vocals until the end of the song. I tried to
line the music up with the vocals the best I could. Hope it makes sense.)

      Am
1)Rhi-an-non rings like a bell through the night
        F
    and wouldn't you love to love?
      Am
2)       She is like a cat in the dark
   F
   and then she is the dark-ness.
         Am
3)       She rings like a bell through the night
   F
and wouldn't you love to love her?

   (Rhi-(an-non)            (night)
        (She)               (dark)
        (She)               (night)
E--------------------------------------|
B--------------------------------------|
G---------7------9---7-----------------|
D------10------------------10-9---7----|
A--------------------------------------|
E--------------------------------------|
  Am                                          F
1)Takes to the sky like a bird in flight, and who will be her lover?
  Am                                          F
2)She rules her life like a fine shy-lark and when the sky is star-less.
  Am
3)She rules her life like a bird in flight, and who may be her lover?

    (Takes)             (flight)
    (She)               (lark)
    (She)               (flight)
E----------------------------|
B----------------------------|
G----------7-9---7-----------|
D-7-9/10------------10-9--7--|
A----------------------------|
E----------------------------|

Chorus

   C                                           F
   All your life you've   nev-er seen  a wom-an
E------------------------------------------------------------|
B------------------------------------------------------------|
G------------------------------------------------------------|
D-----7-10-----------7-10------------7-10--------------7-10--|
A-10-------------10-------------10-----------------10--------|
E------------------------------------------------------------|

   F
   Taken by  the wind.
E---------------------------------|
B---------------------------------|
G---------------------------------|
D-9-7-----------------10-9-7------|
A-----------------------------10--|
E---------------------------------|

   C
   Would you stay if she prom-ised you heav-en?
E---------------------------------------------|
B---------------------------------------------|
G---------------------------------------------|
D-----7--10-----------7--10-----------7--10---|
A-10--------------10--------------10----------|
E---------------------------------------------|

   Will you ev-er win?
E---------------------------------|
B---------------------------------|
G---------------------------------|
D-------7-10-----9-7------10-9-7--|   To verse 2
A--10-----------------------------|
E---------------------------------|

                                  End of second chorus
  ( Will you ev-er win?)         Will you ev-er win?
E---------------------------------------------------------------------|
B---------------------------------------------------------------------|
G---------------------------------------------------------------------|
D----7-10------9-7------10-9-7------------10-9-7------10-9-7--10-9-7--|
A-10------------------------------------------------------------------|
E---------------------------------------------------------------------|

E------------8--------------|
B-8>(10)>8-8---h10-10p8-10--|
G---------------------------|
D---------------------------|
A---------------------------|
E---------------------------|

  F         Am
  Rhi-an----non
E----------------------------------|
B----------------------------------|
G---------------7--9---7-----------|
D------------10-----------10-9--7--|
A----------------------------------|
E----------------------------------|

  F         Am
  Rhi-an----non
E-----------------------------8------------------------------|
B--------------->(10)>8(10)>8----10-8------------------------|
G--------------------------------------9-7-7>(9)>7p5---------|
D-----------------------------------------------------7vvvv--|
A------------------------------------------------------------|
E------------------------------------------------------------|

  F         Am
  Rhi-an----non
E-----------------------------------|
B-----------------------------------|
G----------------7--9---7-----------|
D------------10------------10-9--7--|
A-----------------------------------|
E-----------------------------------|

  F               F
  Rhi-an-----|non
E-----------------------------------------------0---------|
B---------------------------------------1-0-1-3---0--2-1--| To verse 3
G----------------------2p0-2p0-2p0-2p0-----------------2--|
D---------------------------------------------------------|
A---------------------------------------------------------|
E---------------------------------------------------------|

                            End of third chorus

  (Will you ev-er win?)     Will you ev-er win?
E---------------------------------------------------------|
B---------------------------------------------------------|
G---------------------------------------------------------|
D-10-9-7---------------10-9-7---------------------10-9-7--|
A---------------------------------------------------------|
E---------------------------------------------------------|

  F
E----------------------------------------------------|
B-----------------------17h20-17---------------------|
G-----------------7--9------------19-17-17-----------|
D--------------10---------------------------h19vvvv--|
A----------------------------------------------------|
E----------------------------------------------------|

  F          Am
  Rhi-an----non
E----------------------------------|
B----------------------------------|
G---------------7--9----7----------|
D------------10-----------10-9-7---|
A----------------------------------|
E----------------------------------|

  F          Am
  Rhi-an----non
E----------------------15--------------------------------------|
B----------------15h17----h17-15-------------------------------|
G--------------------------------h17/19>(21)vv>19p17-----------|
D-----------------------------------------------------19vvvv---|
A--------------------------------------------------------------|
E--------------------------------------------------------------|

  F          Am
  Rhi-an----non
E------------------------------------|
B------------------------------------|
G-----------------7--9----7----------|
D-------------10------------10-9-7---|
A------------------------------------|
E------------------------------------|

  F                           Am
  Tak-en by, tak-en by the sky.
E--------------------------------------------------------|
B--------------------------------------------------------|
G------------------------------------7--9----7-----------|
D--------------------------------10-------------10-9--7--|
A--------------------------------------------------------|
E--------------------------------------------------------|

  F                           Am
  Tak-en by, tak-en by the sky.
E---------------------------------8-----------------------------------------|
B-----------------------------------h10-10-8h10-10>(12)>10p8-10-10p8-10vvvv-|
G---------------------------------------------------------------------------|
D---------------------------------------------------------------------------|
A---------------------------------------------------------------------------|
E---------------------------------------------------------------------------|

  F                          Am                          F
  Tak-en by, tak-en by the sky
E------------------------------------------------------|
B------------------------------------------------------|
G----------------------------------7--9----7-----------|
D-------------------------------10------------10-9--7--|
A------------------------------------------------------|
E------------------------------------------------------|

End solo

E-10p8-----------8----------------8-10-12--8-10----------|
B------10---8h10---h10-10p8-10vv-----------------10vvvv--|
G--------------------------------------------------------|
D--------------------------------------------------------|
A--------------------------------------------------------|
E--------------------------------------------------------|

E--------------------------------------------------------|
B-8h10-10vvvv-8h10------------8-10p8---------------------|
G------------------9vvvv--7h9--------9---7h9-7-----------|
D-----------------------------------------------h10-7----|
A--------------------------------------------------------|
E--------------------------------------------------------|

E---------------------------------------------------------|
B------------------------------------------------8-10vvvv-|
G-------------------7>(9)>7p5-7p5-----------7-9-----------|
D-7h10-10-10p7---10---------------7vvv---10---------------|
A---------------------------------------------------------|
E---------------------------------------------------------|

E-8-10-12-10p8-10p8---------|
B-------------------10vvvv--|
G---------------------------|
D---------------------------|
A---------------------------|
E---------------------------|

Am                                     F
Dreams un-wind, love's a state of mind.      R&F

E,B,G,D,A,E  =  guitar strings
vvvv  =  vibrato
h  =  hammer on
p  =  pull off
>( )>  = bend to note in ( ) and release
(10)8>(10)>8  =  Strike string once for this release,bend,release.
/  =  slide up

Listen to song while reading the tab to see where I went with this before
trying to play the tab. Like I said. I hope it makes sense.

Tabbed from the Fleetwood Mac LP, from the mid 70's
Tap to rate this tab
 
# A B C D E F G H I J K L M N O P Q R S T U V W X Y Z