Song name
# A B C D E F G H I J K L M N O P Q R S T U V W X Y Z

Flight Of The Conchords - Hiphopopotamus Vs Rhymenoceros tab

                                         Hiphopopotamus vs. Rhymenoceros


                                             Flight Of The Conchords


                                           Live at HBO One Night Stand

Intro

Guitar 1 (Jemaine)

E||--8----8----7--8----8----7--|--8----8----7--8--7--8--7--|
B||--8----8----7--8----8----7--|--8----8----7--8--7--8--7--|
G||--8--x-8--x-7--8--x-8--x-7--|--8--x-8--x-7--8--7--8--7--|
D||--7--x-7--x-6--7--x-7--x-6--|--7--x-7--x-6--7--6--7--6--|
A||----------------------------|---------------------------|
E||----------------------------|---------------------------|


Guitar 2 (Bret)

E||----------------------|------------------------|------------------------|
B||----------------------|------------------------|------------------------|
G||----------------------|------------------------|------------------------|
D||----------------------|------------------------|------------------------|
A||----------------------|-------------2----------|------------------------|
E||---------------10\----|--5---------------------|--1----------0----------|


Verse (Bret Rapping)

Guitar 1 (Jemaine)

|----------------------------------|------------------------------|
|----------------------------------|------------------------------|
|----------------------------------|------------------------------|
|----------------------------------|------------------------------|
|------------------2--2-2h-3p-2----|-------------------------x----|
|--5--5-5h-7p-5-5---------------0--|--1----1----L-1-3-1-0---------|


Guitar 2 (Bret)

|------------------------|------------------------|
|-------------4----------|------------------------|
|--5----------4----------|--2----------1----------|
|--7----------4----------|--3----------2----------|
|--7----------2----------|--3----------2----------|
|--5---------------------|--1----------0----------|


Verse (Jemaine Rapping)

Guitar 1 (Jemaine)

|------------------------|--------------------------|
|------------------------|--------------------------|
|------------------------|--------------------------|
|------------------------|--------------------------|
|-------------2----------|---------------7----7-----|
|--5---------------------|--1----------0---0-----0--|


Guitar 2 (Bret)

|------------------------|------------------------|
|-------------4----------|------------------------|
|--5----------4----------|--2----------1----------|
|--7----------4----------|--3----------2----------|
|--7----------2----------|--3----------2----------|
|--5---------------------|--1----------0----------|


Outro

Guitar 1 (Jemaine)

|--8-x-x-x-x-x-x-x-7-x-x-x-x-x-x-x-|--8-x-x-x-x-x-x-x-7-x-x-x-7-x-x-x-||
|--8-x-x-x-x-x-x-x-7-x-x-x-x-x-x-x-|--8-x-x-x-x-x-x-x-7-x-x-x-7-x-x-x-||
|--8-x-x-x-x-x-x-x-7-x-x-x-x-x-x-x-|--8-x-x-x-x-x-x-x-7-x-x-x-7-x-x-x-||
|--7---------------6---------------|--7---------------6-------6-------||
|----------------------------------|----------------------------------||
|----------------------------------|----------------------------------||


Guitar 2 (Bret)

|------------------------|------------------------||
|-------------4----------|------------------------||
|--5----------4----------|--2----------1----------||
|--7----------4----------|--3----------2----------||
|--7----------2----------|--3----------2----------||
|--5---------------------|--1----------0----------||

Bret's Fills

Some times while Jemaine is rapping, bret puts this fill in...

|------------------------|------------------------------|
|-------------4----------|-------------9-9-9-9-9-9-9----|
|--5----------4----------|--2---------------------------|
|--7----------4----------|--3----------9-9-9-9-9-9-9----|
|--7----------2----------|--3----------7-7-7-7-7-7-7----|
|--5---------------------|--1---------------------------|


And after Jemaine's freestyle rap Bret plays this...

		   NH
|-------------------------|
|-----------------(12)----|
|-----------------(12)----|
|-------------------------|
|-------------------------|
|-------------------------|

Tablature Legend
----------------
h - hammer on
p - pull off
L - tied note
NH - natural harmonic
Tap to rate this tab
 
# A B C D E F G H I J K L M N O P Q R S T U V W X Y Z