Song name
# A B C D E F G H I J K L M N O P Q R S T U V W X Y Z

Flight Of The Conchords - Theme Song tab

----------------------------------------------------------------------------
			     Theme Song - Flight Of The Conchords
----------------------------------------------------------------------------
Tabbed by:BlocPartyFreak
Email:madfender@gmail.com

Tuning:Standard  EADGBe

I've looked at other tabs and none of them are correct. It's really very simple, using 
2 chords. I've also written the strumming pattern/rhythym. Enjoy!

> = Down
^ = Up
Am [x 0 2 2 1 0]
Em [0 2 2 0 0 0]

Drums, then:
Intro

    Am     Em           Am    Em            Am    Em            Am
     >     ^  ^  >  ^    >     ^  ^  >  ^    >     ^  ^  >  ^    >
e|---0---|-0--0--0--0|---0---|-0--0--0--0|---0---|-0--0--0--0|---0---|
B|---1---|-0--0--0--0|---1---|-0--0--0--0|---1---|-0--0--0--0|---1---|
G|---2---|-0--0--0--0|---2---|-0--0--0--0|---2---|-0--0--0--0|---2---|
D|---2---|-2--2--2--2|---2---|-2--2--2--2|---2---|-2--2--2--2|---2---|
A|---0---|-2--2--2--2|---0---|-2--2--2--2|---0---|-2--2--2--2|---0---|
E|---x---|-0--0--0--0|---x---|-0--0--0--0|---x---|-0--0--0--0|---x---|

                               PAUSE


    Am     Em           Am    Em            Am    Em            Am
     >     ^  ^  >  ^    >     ^  ^  >  ^    >     ^  ^  >  ^    >
e|---0---|-0--0--0--0|---0---|-0--0--0--0|---0---|-0--0--0--0|---0---|
B|---1---|-0--0--0--0|---1---|-0--0--0--0|---1---|-0--0--0--0|---1---|
G|---2---|-0--0--0--0|---2---|-0--0--0--0|---2---|-0--0--0--0|---2---|
D|---2---|-2--2--2--2|---2---|-2--2--2--2|---2---|-2--2--2--2|---2---|
A|---0---|-2--2--2--2|---0---|-2--2--2--2|---0---|-2--2--2--2|---0---|
E|---x---|-0--0--0--0|---x---|-0--0--0--0|---x---|-0--0--0--0|---x---|

                               PAUSE


    Am     Em           Am    Em            Am    Em            Am
     >     ^  ^  >  ^    >     ^  ^  >  ^    >     ^  ^  >  ^    >
e|---0---|-0--0--0--0|---0---|-0--0--0--0|---0---|-0--0--0--0|---0---|
B|---1---|-0--0--0--0|---1---|-0--0--0--0|---1---|-0--0--0--0|---1---|
G|---2---|-0--0--0--0|---2---|-0--0--0--0|---2---|-0--0--0--0|---2---|
D|---2---|-2--2--2--2|---2---|-2--2--2--2|---2---|-2--2--2--2|---2---|
A|---0---|-2--2--2--2|---0---|-2--2--2--2|---0---|-2--2--2--2|---0---|
E|---x---|-0--0--0--0|---x---|-0--0--0--0|---x---|-0--0--0--0|---x---|
                               PAUSE

                              (STROKE)

                                Am
                                 >
                            e|---0---|
                            B|---1---|
                            G|---2---|
                            D|---2---|
                            A|---0---|
                            E|---x---|


THE END!
Comments welcome.
BlocPartyFreak
Tap to rate this tab
 
# A B C D E F G H I J K L M N O P Q R S T U V W X Y Z