Guitaretab - guitar tabs
Song name
# A B C D E F G H I J K L M N O P Q R S T U V W X Y Z

Flybanger - Suckerpunch tab

Artist: The Mayfield Four
Song: Suckerpunch
Album: The Fallout
Tabbed by: Jhenri

Standard Tuning

Intro
Guitar 1

E |----------------------------------------------|
B |----------------------------------------------|
G |---------9---------------9--------------------|Hit each one once
D |---11----9---7------11---9---7----------------|
A |---11----7---7------11---7---7----------------|
E |----9--------5-------9-------5----------------|

Guitar 2

E |------4-0---4-5-4-0-----------|
B |----2-----2-------------------| play 8X over guitar 1
G |------------------------------|
D |------------------------------|
A |------------------------------|
E |------------------------------|

Verse
Guitar 1

E |--------------------------------------|
B |--------------------------------------|  Play this twice 2nd 
G |--------------------------------------|  time pushing down o
D |---11-----9-----7-----11-----9-----7--|
A |---11-----9-----7-----11-----9-----7--|
E |---9------7-----5------9-----7-----5--|

Guitar 2

E |-------------------5-4-5-4-----------------5-4--|
B |-2-2-2-2-2-2-2-2-2---------2-2-2-2-2-2-2-2------|
G |------------------------------------------------|The 2 on the B string
B |------------------------------------------------|are muted. Just play 
A | -----------------------------------------------|once.
E |------------------------------------------------|

Chorus 
Guitar 1

E |-------------------------------------------------|
B |-------------------------------------------------|
G |----------9----------------9---------------------|
D |-----11---9----7------11---9----7----------------|
A |-----11---7----7------11---7----7----------------|
E |------9--------5-------9--------5----------------|

Guitar 2

E |------4-0----4-5-4-0------|
B |----2-----2---------------| play 8X over guitar 1
G |--------------------------|
D |--------------------------|
A |--------------------------|
E |--------------------------|

Verse
Guitar 1

E |-------------------------------------------|
B |-------------------------------------------|Play this twice, 2nd 
G |-------------------------------------------|time pushing down on wah
D |---11------9------7------11------9------7--|
A |---11------9------7------11------9------7--|
E |---9-------7------5-------9------7------5--|

Guitar 2

E |-------------------5-4-5-4-----------------5-4--|
B |-2-2-2-2-2-2-2-2-2---------2-2-2-2-2-2-2-2------|
G |------------------------------------------------|The 2 on the B string
B |------------------------------------------------|are muted. Just play 
A |------------------------------------------------|once.
E |------------------------------------------------|

E |-5b-5b-5b/-----------|
B |---------------------| play at end of verse
G |---------------------|
D |---------------------|
A |---------------------|
E |---------------------|

Chorus
Guitar 1
[ Tab from: http://www.guitaretab.com/f/flybanger/124859.html ]
E |---------------------------------------------|
B |---------------------------------------------|
G |----------9----------------9-----------------| Hit each one once
D |-----11---9---7-----11-----9---7-------------|
A |-----11---7---7-----11-----7---7-------------|
E |------9-------5------9---------5-------------|

Guitar 2

E |------4-0----4-5-4-0------|
B |----2-----2---------------| play 8X over guitar 1
G |--------------------------|
D |--------------------------|
A |--------------------------|
E |--------------------------|

Bridge
Guitar 1

E |-----------------------------------------------|
B |-----------------------------------------------|
G |--------------------9x-9x-9x-9-----------------|3X then guitar 2ís part
D |---11x-11x-11x-11---9x-9x-9x-9---7x-7x-7x-7----|
A |---11x-11x-11x-11---7x-7x-7x-7---7x-7x-7x-7----|
E |----9x-9x--9-x--9----------------5x-5x-5x-5----|

Guitar 2

E |-4-5-4-0--4-5-4-0-----4-5-4-0--4-5-4-0--4-5-4-0---------|
B |--------------------------------------------------------|
G |--------------------------------------------------------|
D |--------------------------------------------------------|
A |--------------------------------------------------------|
E |--------------------------------------------------------|

E |--5-4-0-5-4-0-5-4-0-5-4-0-5-4-5-4-0-------|
B |------------------------------------------|
G |------------------------------------------|
D |------------------------------------------|
A |------------------------------------------|
E |------------------------------------------|

Guitar 1

E |-------------------------------------|
B |-------------------------------------|
G |---------9---------------9-----------| Hit each one once
D |---11----9---7------11---9---7-------|
A |---11----7---7------11---7---7-------|
E |----9--------5-------9-------5-------|

Guitar 2

E |------4-0----4-5-4-0------|
B |----2-----2---------------| play 8X over guitar 1
G |--------------------------|
D |--------------------------|
A |--------------------------|
E |--------------------------|

Chorus 
Guitar 1

E |-----------------------------------------------|
B |----------------------------------------------|
G |---------9---------------9--------------------| Hit each one once
D |----11---9---7------11---9---7----------------|
A |----11---7---7------11---7---7----------------|
E |----9--------5------9--------5----------------|

Guitar 2

E |------4-0----4-5-4-0------|
B |----2-----2---------------| play 8X over guitar 1
G |--------------------------|
D |--------------------------|
A |--------------------------|
E |--------------------------|

Outro
Guitar 1

E |----------------------------------|
B |----------------------------------|
G |-------9-------------9------------|  Strum the Chords
D |--11---9---7----11---9---7--------|
A |--11---7---7----11---7---7--------|
E |---9-------5-----9-------5--------|

Guitar 2
E |---------------------|
B |---------------------| Strum the notes with Guitar 1
G |-----9---------------| second time it plays the chords
D |-11-----7------------|
A |---------------------|
E ----------------------|
Related for Suckerpunch tab