Song name
# A B C D E F G H I J K L M N O P Q R S T U V W X Y Z

Flying Blind - Smokescreen tab

All the tabs I have seen before just SUCKS!!!
Here is my tab (I think it is 99% correct). Check it out:

Verse 1 (palm-muted distortion):

                   D#5               
 Have you seen my girl?
                         H#5
 She's the one with the curly hair
                             G#5
 She was sitting just right over there
                          A#5
 Now she's nowhere to be found
                      D#5
 I think she's mad at me
              H#5
 I don't know why
                          G#5
 Maybe because I made her cry
                        A#5
 When I told her I was down


 Chorus (distortion):

                            D#5
 She only likes me when I'm high
                                H#5
 She's always trying to get me stoned
                            G#5
 She wants to see me in the sky
                           A#5
 She has to have me there alone
                     D#5
 She's got me on my knees
                       H#5
 Beggin' baby, baby, please
                G#5
 Don't hurt me, no...
               A#5
 Don't hurt me so...


 Verse 2 (distortion):


 As a gentleman
                   H#5               
 I do everything I can to be
                       G#5
 A law-abiding kind of energy
                          A#5
 Yes stimulating all the while
                      D#5
 But when she comes around
               H#5   
 I don't know why
                 G#5
 I always go too far
                          A#5 A#5  A#5  A#5  A#5   
 And end up puking on the bathroom tile (Oh my!)


 Bridge 1:

 A|-----6--10-8-6-8-6---------------|
 E|-6-8-----------------------------|


 Chorus (distortion):

                            D#5
 She only likes me when I'm high
                                H#5
 She's always trying to get me stoned
                            G#5
 She wants to see me in the sky
                           A#5
 She has to have me there alone
                     D#5
 She's got me on my knees
                       H#5
 Beggin' baby, baby, please
                G#5
 Don't hurt me, no...
               A#5
 Don't hurt me so...


 Bridge 2 (distortion):

 E|-----------------------------------|
 B|-----------------------------------|
 G|-------------------8-8--8----------|
 D|-10-10--8--6-6--8--8-8--8--8-8--9--|
 A|-10-10--8--6-6--8--6-6--6--8-8--9--|
 E|-8--8---6--4-4--6----------6-6--7--|

 E|------------------------------------------------------------|
 B|------------------------------------------------------------|
 G|-------------------8-8--8-----------------------------------|
 D|-10-10--8--6-6--8--8-8--8--8-888888888888888888888888888888-|
 A|-10-10--8--6-6--8--6-6--6--8-888888888888888888888888888888-|
 E|-8--8---6--4-4--6----------6-666666666666666666666666666666-|
                                ..............................
 
 Verse 3 (acoustic):

                  D#5
 When she comes around
              H#5
 I don't know why
                          G#5
 I always let her drag me down
                        A#5 A#5 A#5 A#5 A#5 (!!!distortion!!!)
 But can I leave it all behind
 
 Bridge 1:

 A|-----6--10-8-6-8-6---------------|
 E|-6-8-----------------------------|






 Chorus (distortion):

                            D#5
 She only likes me when I'm high
                                H#5
 She's always trying to get me stoned
                            G#5
 She wants to see me in the sky
                           A#5
 She has to have me there alone
                     D#5
 She's got me on my knees
                       H#5
 Beggin' baby, baby, please
                G#5
 Don't hurt me, no...
               A#5
 Don't hurt me so...

 Then:

 E|-----------------------|
 B|-----------------------|
 G|----------------8------|
 D|--8-8-8--8-8-8--8------|
 A|--8-8-8--8-8-8--6------|
 E|--6-6-6--6-6-6---------|

 Outro (acoustic):

 She's tracking

 She tracks me down

 She's bound

 To drag me down...
         D#5
 She's tracking
                H5
 She tracks me down
        H#5
 She's bound
            G#5
 To drag me down...


 CHORDS: 
 
    D#5 H H#5  G#5 A#5

 E|--------------------------------------|
 B|--------------------------------------|
 G|--8-----------------------------------|
 D|--8--9--10---6---8--------------------|
 A|--6--9--10---6---8--------------------|
 E|-----7--8----4---6--------------------|

It is the best song from American Pie 2 Soundtrack!!!
Rate this tab pease!!!
Tap to rate this tab
# A B C D E F G H I J K L M N O P Q R S T U V W X Y Z