Song name
# A B C D E F G H I J K L M N O P Q R S T U V W X Y Z

Fm Static - Notion tab

Help us improve GuitareTab! Take a short survey!
*****************************************************************************
This is my first tab. Its the whole song for "The Notion" by FM Static. The last tab for 
song was kind of confusing and didn't sound right so I posted this.
*****************************************************************************


e -----------------------------------------|
B -----------------------------------------|
G ---------------77-77---------------7/9---|    2x
D ---0--2-4-0----XX-XX---0--2-4-0----X-X---|
A ---0--2-4-0----55-55---0--2-4-0----5/7---|
E ---0--2-4-0------------0--2-4-0----------|


      D           G         A          B
e ---2--2------3----3---------------2------2--------------------------------|
B ---3--3-----------------2--2------3------3--------------------------------|
G ---2--2-----------------2--2------4------4--------------------------------|
D ------------------------2--2------4------4--------------------------------|
A -------------2----2---------------2------2--------------------------------|
E -------------3----3---------------2------2--------------------------------|

     She knows, that I'm,           Waiting by the door.

      D           G             A                   B
e ---2--2------3----3----------------------------2------2----------------|
B ---3--3--------------------2------2------------3------3----------------|
G ---2--2--------------------2------2------------4------4----------------|
D ---------------------------2------2------------4------4----------------|
A -------------2----2----------------------------2------2----------------|
E -------------3----3----------------------------2------2----------------|

     I know,    that She's,   Trying to cover up staring at the floor.

  D     D    G
Let's  Go! Don't say maybe.
  B                                           A   A
Forget everyone around lets get together and get down.
D     G                       B  B  A
I know it sound crazy........ 1, 2, 3 times a lady.

D      G
Oh No, I got the notion.
A                     G
Let's get together and start a commotion.
D                    G
Round and round, till everyone stops,
A                          G
Till the next needle on the record player drops.


e -----------------------------------------|
B -----------------------------------------|
G ---------------77-77---------------7/9---|    2x
D ---0--2-4-0----XX-XX---0--2-4-0----X-X---|
A ---0--2-4-0----55-55---0--2-4-0----5/7---|
E ---0--2-4-0------------0--2-4-0----------|


      D           G         A          B
e ---2--2------3-----3-------------------------2------2-------------------|
B ---3--3------------------2--------2----------3------3-------------------|
G ---2--2------------------2--------2----------4------4-------------------|
D -------------------------2--------2----------4------4-------------------|
A -------------2-----2-------------------------2------2-------------------|
E -------------3-----3-------------------------2------2-------------------|

     It's al----most time  to say our goodbyes and get home tonight.


    D           G         A          B
e ---2--2----------3-------3-------------------------------2------2------|
B ---3--3------------------------2--------2----------------3------3------|
G ---2--2------------------------2--------2----------------4------4------|
D -------------------------------2--------2----------------4------4------|
A -----------------2-------2-------------------------------2------2------|
E -----------------3-------3-------------------------------2------2------|

     Lets do it up one more time. Show these people what we had in mind.

  D     D    G
Let's  Go! Don't say maybe.
  B                                           A   A
Forget everyone around lets get together and get down.
D     G                       B  B  A
I know it sound crazy........ 1, 2, 3 times a lady.

D      G
Oh No, I got the notion.
A                     G
Let's get together and start a commotion.
D                    G
Round and round, till everyone stops,
A                          G
Till the next needle on the record player drops.


D      G
Oh No, I got the notion.
A                     G
Let's get together and start a commotion.
D                    G
Round and round, till everyone stops,
A                          G
Till the next needle on the record player drops.




e ------------------------------------------|
B ------------------------------------------|
G ---7--9--7----7--9--7----7--9--7--12-9-6--| x4
D ------------------------------------------|
A ------------------------------------------|
E ------------------------------------------|

N.C
Oh No, I got the notion.

Let's get together and start a commotion.
D                    G
Round and round, till everyone stops,
A                          G
Till the next needle on the record player drops.


D      G
Oh No, I got the notion.
A                     G
Let's get together and start a commotion.
D                    G
Round and round, till everyone stops,
A                          G
Till the next needle on the record player drops.


e -----------------------------------------|
B -----------------------------------------|
G ---------------77-77---------------7/9---|    3x
D ---0--2-4-0----XX-XX---0--2-4-0----X-X---|
A ---0--2-4-0----55-55---0--2-4-0----5/7---|
E ---0--2-4-0------------0--2-4-0----------|

e -----------------------------------|
B -----------------------------------|
G ---------------77-77---------------|
D ---0--2-4-0----XX-XX---0--2-4-0----|
A ---0--2-4-0----55-55---0--2-4-0----|
E ---0--2-4-0------------0--2-4-0----|
Related for Notion tab