Song name
# A B C D E F G H I J K L M N O P Q R S T U V W X Y Z

Focus - Harem Scarem tab

Tabed by: Mauricio Galeano

Intro and verse:
e-----------------------------------------------------------------|
B-----------------------------------------------------------------|
G-----------------------------------------------------------------|
D--------4-4-4-4-4-4-4-4-4-4-------4-4-4---------4-4-4------------|
A-----------------------------------------------------------------|
E-1-1-1-1---------------------1-1-1-------1-1-1-------------------|

During the verse Akkerman plays the same Fill as the Intro, or you
can play Fmmaj7

After repeating the verse he plays some chords that I haven't got the name yet
But I'll tab them:
e-----16---14---12------------------------------------------------|
B-----15---13---11------------------------------------------------|
G-----14---12---10------------------------------------------------|
D-----------------------------------------------------------------|
A-----------------------------------------------------------------|
E-----------------------------------------------------------------|

Then he comes back to the main riff but after the verse he plays this instead
of the last the chords

|C#-D#-F-F#-G#-A#-C|(VERY QUICKLY)

He stays in C but he comes back soon to Fmmaj7

Then he repeates all what we have done but instead of staying in C
he plays this riff with a different rhythm on drums
e-------------------------------------------------------------|
B-------------------------------------------------------------|
G-------------------1-----------------------------------------|
D----------------------3---1--3-------------------------------|  x3
A------0--0---2--3--------------------------------------------|
E-1-1---------------------------------------------------------|

THE SAME RIFF 1 TONE UP
ALSO 3 TIMES

And here comes the solo:
e--9-------------------9---------------|
B----10-------------------10-----------|
G------11--11/13-------------11-11/13--|
D----------------11--------------------|
A--------------------------------------|
E--------------------------------------|

e-----------------------------------------------------|
B------------14--14---16--16--------------------------|
G--11/13/15-------------------11 11-----11-11--13--11-|
D------------------------------------13---------------|
A-----------------------------------------------------|
E-----------------------------------------------------|

He repeates all of this again and imrovises on the pentatonic Fm scale

Any doubts or questions send a e-mail to galedut@adinet
Tap to rate this tab
 
# A B C D E F G H I J K L M N O P Q R S T U V W X Y Z