Song name
# A B C D E F G H I J K L M N O P Q R S T U V W X Y Z

Focus - Hocus Pocus tab

                                Focus
                             Hocus Pocus


Standard Tuning
EADGBe


----------------------------------|
----------------------------------|
-------------------9-10-7---9-----|
--5/7777--5/7777---9-10-7-9-9-----|x8
--0-0000--0-0000---7--8-5-9-7-----|
--------------------------7-------|

-------------------------------------|
-------------------------------------|
---------------7-10-12--------12-----|
----7-10-12----7-10-12--------12-----|
----7-10-12----5--8-10--------10-----|
----5--8-10--------------------------|


----------------------------------|
----------------------------------|
-------------------9-10-7---9-----|
--5/7777--5/7777---9-10-7-9-9-----|x5
--0-0000--0-0000---7--8-5-9-7-----|
--------------------------7-------|

-------------------------------------|
-------------------------------------|
---------------7-10-12--------12-----|
----7-10-12----7-10-12--------12-----|
----7-10-12----5--8-10--------10-----|
----5--8-10--------------------------|

thats the main part
ther are incredible solos after this
ill try to tab them but it may take a while
peace
Tap to rate this tab
# A B C D E F G H I J K L M N O P Q R S T U V W X Y Z