Song name
# A B C D E F G H I J K L M N O P Q R S T U V W X Y Z

Fokofpolisiekar - Antibiotika tab

Sleutel:
x:  mute
/:  slide
p:  pull-off
h:  hammer-on
b:  bend
br: Bend-release
~:  let ring

Riff 1:

Guitar 1:

E|-----10---10-----| 
B|--------8--------|
G|--11-------------|   X20
D|-----------------|
A|-----------------|
e|-----------------|

Guitar 2: (val in na dat die boonste riff 8 keer gespeel was)

E|------------------------------------| 
B|------------------------------------|
G|--------------5-5-------------------|  
D|--2---5-5-2---5-3-2---5-5-----------|
A|--2---5-5-2---3-3-2---5-5-----------|
e|--0---3-3-0-------0---3-3-----------|

Guitar: 1 & 2

E|------------------------------------| 
B|------------------------------------|
G|--5-5--9-9--7-7--4-4----------------|  
D|--x-x--x-x--x-x--x-x----------------|
A|--3-3--7-7--5-5--2-2----------------|
e|------------------------------------|

Riff 2:

Guitar: 1

E|------------------------------------| 
B|------------------------------------|
G|------------------------------------|  X 2
D|------------------------------------|
A|--5-5-5h7-7-------------------------|
e|-----------0-0-0-0-0-0-0-0-0-0-0----|

E|-----------------------------------------| 
B|-----------------------------------------|
G|-----------------------------------------|  
D|-----------------------------------------|
A|-7-7-7-7/3p0-0-0-0-0-0-0-5-5-5-3-2-------|
e|-----------------------------------5-3-2-|

E|-----------------------------------| 
B|-----------------------------------|
G|-----------------------------------|  
D|-----------------------------------|
A|-7-----7-----7---7-----7-----------|
e|---0-0---0-0---0---0-0----0-0--0-0-|

Guitar: 2

E|------------------------------------| 
B|------------------------------------|
G|-7-7/9-9----------------------------|  X 2
D|-x-x/x-x-2-2-2-2-2-2-2-2-2-2-2------|
A|-5-5/7-7-2-2-2-2-2-2-2-2-2-2-2------|
e|---------0-0-0-0-0-0-0-0-0-0-0------|

E|--------------------------------------------| 
B|--------------------------------------------|
G|-9-9-9/-5-5-5-5-5-5-5-5--7-7-7-7-7-7-7-7----|  
D|-x-x-x/-x-x-x-x-x-x-x-x--x-x-x-x-x-x-x-x----|
A|-7-7-7/-3-3-3-3-3-3-3-3--5-5-5-5-5-5-5-5----|
e|--------------------------------------------|

E|------------------------------------| 
B|------------------------------------|
G|-9-9-9-9-9-9-9-9-9-9-9-9-9-9-9-9----|  
D|-9-9-9-9-9-9-9-9-9-9-9-9-9-9-9-9----|
A|-7-7-7-7-7-7-7-7-7-7-7-7-7-7-7-7----|
e|------------------------------------|

Riff 3:

Guitar 1/2:(met een of ander effect ek dink 'n killswitch behoort te werk)

E|--------------------------------------------| 
B|-8~-----5~-----7~-----8~--------------------|
G|-9~-----5~-----7~-----9~--------------------|  
D|-9~-----5~-----7~-----9~--------------------|
A|--------------------------------------------|
e|--------------------------------------------|

Guitar 1: val in na die Em chord

E|---------------------------------------------| 
B|---------------------------------------------|
G|---------------------------------------------|  
D|---------------------------------------------|
A|-------5-5h7-7-------------------------------|
e|-1/12----------0-0-0-0-0-0-0-0-0-0-0-0-------|


E|-----------------------------------------| 
B|-----------------------------------------|
G|-----------------------------------------|  
D|-----------------------------------------|
A|-5-5h7-7---------------------------------|
e|-----------0-0-0-0-0-0-0-0-0-0-0-0-------|

E|-----------------------------------------| 
B|-----------------------------------------|
G|-----------------------------------------|  
D|-----------------------------------------|
A|-7-7-7-7/3p0-0-0-0-0-0-0-5-5-5-5-5-5-5-5-|
e|-----------------------------------------|

Guitar 2:

E|------------------| 
B|----8-----8-----8-|
G|------9-----9-----| x4 
D|------------------|
A|--7-----7-----7---|
e|------------------|

E|-----------------------------------| 
B|----4-----4-----4----6-----6-----6-|
G|------4-----4----------6-----6-----| 
D|-----------------------------------|
A|--3-----3-----3----5-----5-----5---|
e|-----------------------------------|

Both Guitars:

E|-------| 
B|-------|
G|--9/7--|  x8
D|--x/x--|
A|--7/5--|
e|-------|

E|-------------------------------------| 
B|-------------------------------------|
G|-5-5-5-5-5-5--2-2-2---------9--------|  
D|-5-5-5-5-5-5--2-2-2--5-5-5--9--------|
A|-3-3-3-3-3-3--0-0-0--5-5-5--7--------|
e|---------------------3-3-3-----------|

Riff 4

Guitar 1:

E|----------------------------|
B|----------------------------|
G|----------------------------|  
D|----------------------------|
A|----7-7p5---5-7-7p5---7p5---|
e|--7-------7---------7-------|

Guitar 2:

E|------------------| 
B|------------------|
G|-9-9-9-9-9-9-9-9--|  
D|-9-9-9-9-9-9-9-9--|
A|-7-7-7-7-7-7-7-7--|
e|------------------|

Both Guitars:

E|----------------------------------| 
B|----------------------------------|
G|-5-5-5-5-5-5-5-5--7-7-7-7-7-7-7-7-| 
D|-5-5-5-5-5-5-5-5--7-7-7-7-7-7-7-7-|
A|-3-3-3-3-3-3-3-3--5-5-5-5-5-5-5-5-|
e|----------------------------------|

E|---------------------------------------| 
B|---------------------------------------|
G|---------------------------------------|  
D|--9/7-7--9/7-7--9/7--9-9-9-9-9-9-9-9---|
A|--7/5-5--7/5-5--7/5--7-7-7-7-7-7-7-7---|
e|---------------------------------------|

E|------------------------------------| 
B|------------------------------------|
G|-5-5-5-5-5-5--2-2-2-----------------|  
D|-5-5-5-5-5-5--2-2-2--5-5-5--2-------|
A|-3-3-3-3-3-3--0-0-0--5-5-5--2-------|
e|---------------------3-3-3--0-------|

Guitar 1:

E|----------------------------|
B|----------------------------|
G|----------------------------|  
D|----------------------------|
A|----7-7p5---5-7-7p5---7p5---|
e|--7-------7---------7-------|

Guitar 2:

E|------------------------------------| 
B|------------------------------------|
G|------------------------------------|  
D|-2-2-2-2-2-2-2-2-2-2-2-2-2-2-2-2----|
A|-2-2-2-2-2-2-2-2-2-2-2-2-2-2-2-2----|
e|-0-0-0-0-0-0-0-0-0-0-0-0-0-0-0-0----|

Both guitars:

E|--------------------------------------| 
B|--------------------------------------|
G|--5-5-5-5-5-5-5-5--7-7-7-7-7-7-7-7----|  
D|--x-x-x-x-x-x-x-x--x-x-x-x-x-x-x-x----|
A|--3-3-3-3-3-3-3-3--5-5-5-5-5-5-5-5----|
e|--------------------------------------|

Riff 5:

Guitar 1:

E|-----------------------------------------------------| 
B|--------------------------------------------0-0------|
G|--------------------------------------------0-0------|  
D|------------------------------2~------------0-0---0--|
A|---7p5---7p5----------2-------2~--2-2h4-4h5-----4-0--|
e|-0-----0------3-0-3-5---5-3-5-0~---------------------|

Guitar 2:

E|------------------------------------| 
B|------------------------------------|
G|-9-9-9-9-9-9-9-9-9-9-9-9-9-9-9-9----|  
D|-9-9-9-9-9-9-9-9-9-9-9-9-9-9-9-9----|
A|-7-7-7-7-7-7-7-7-7-7-7-7-7-7-7-7----|
e|------------------------------------|

Guitar 1:

E|------------------------------------| 
B|------------------------------------|
G|-9-9--12-12-12--11-11-11-7-7-7-7----|  
D|-x-x--x--x--x---x--x--x--x-x-x-x----|
A|-7-7--10-10-10--9--9--9--5-5-5-5----|
e|------------------------------------|

Riff 6:

Guitar 1/2:

E|-----------------------------------------| 
B|-8~-----5~----7~-----8~------------------|
G|-9~-----5~----7~-----9~------------------|  
D|-9~-----5~----7~-----9~------------------|
A|-----------------------------------------|
e|-----------------------------------------|

E|-12-12-12-12-12---| 
B|-8--8--8--8--8----|
G|-9--9--9--9--9----|  
D|-9--9--9--9--9----|
A|------------------|
e|------------------|

Riff 7:

Guitar 1:

E|-----------------------------------------| 
B|-----------------------------------------|
G|-----------------------------------------|  
D|-----------------------------------------|
A|---5-5h7-7-------------------------------|
e|-----------0-0-0-0-0-0-0-0-0-0-0-0-------|


E|-----------------------------------------| 
B|-----------------------------------------|
G|-----------------------------------------|  
D|-----------------------------------------|
A|-5-5h7-7---------------------------------|
e|-----------0-0-0-0-0-0-0-0-0-0-0-0-------|

E|-----------------------------------------| 
B|-----------------------------------------|
G|-----------------------------------------|  
D|-----------------------------------------|
A|-7-7-7-7/3p0-0-0-0-0-0-0-5-5-5-5-5-5-5-5-|
e|-----------------------------------------|

Guitar 2:

E|------------------| 
B|----8-----8-----8-|
G|------9-----9-----| x4 
D|------------------|
A|--7-----7-----7---|
e|------------------|

E|-----------------------------------| 
B|----4-----4-----4----6-----6-----6-|
G|------4-----4----------6-----6-----| 
D|-----------------------------------|
A|--3-----3-----3----5-----5-----5---|
e|-----------------------------------|

Both Guitars:

E|-------| 
B|-------|
G|--9/7--|  x8
D|--x/x--|
A|--7/5--|
e|-------|

Riff 8:

E|-------------------------------------| 
B|-------------------------------------|
G|-5-5-5-5-5-5--2-2-2---------9--------|  
D|-5-5-5-5-5-5--2-2-2--5-5-5--9--------|
A|-3-3-3-3-3-3--0-0-0--5-5-5--7--------|
e|---------------------3-3-3-----------|

Guitar 1:


E|----------------------------|
B|----------------------------|
G|----------------------------|  
D|----------------------------|
A|----7-7p5---5-7-7p5---7p5---|
e|--7-------7---------7-------|
Guitar 2:

E|------------------| 
B|------------------|
G|-9-9-9-9-9-9-9-9--|  
D|-9-9-9-9-9-9-9-9--|
A|-7-7-7-7-7-7-7-7--|
e|------------------|

Both Guitars:

E|----------------------------------| 
B|----------------------------------|
G|-5-5-5-5-5-5-5-5--7-7-7-7-7-7-7-7-| 
D|-5-5-5-5-5-5-5-5--7-7-7-7-7-7-7-7-|
A|-3-3-3-3-3-3-3-3--5-5-5-5-5-5-5-5-|
e|----------------------------------|

E|---------------------------------------| 
B|---------------------------------------|
G|---------------------------------------|  
D|--9/7-7--9/7-7--9/7--9-9-9-9-9-9-9-9---|
A|--7/5-5--7/5-5--7/5--7-7-7-7-7-7-7-7---|
e|---------------------------------------|

E|------------------------------------| 
B|------------------------------------|
G|-5-5-5-5-5-5--2-2-2-----------------|  
D|-5-5-5-5-5-5--2-2-2--5-5-5--2-------|
A|-3-3-3-3-3-3--0-0-0--5-5-5--2-------|
e|---------------------3-3-3--0-------|

Guitar 1:

E|----------------------------|
B|----------------------------|
G|----------------------------|  
D|----------------------------|
A|----7-7p5---5-7-7p5---7p5---|
e|--7-------7---------7-------|

Guitar 2:

E|------------------------------------| 
B|------------------------------------|
G|------------------------------------|  
D|-2-2-2-2-2-2-2-2-2-2-2-2-2-2-2-2----|
A|-2-2-2-2-2-2-2-2-2-2-2-2-2-2-2-2----|
e|-0-0-0-0-0-0-0-0-0-0-0-0-0-0-0-0----|


Both guitars:

E|--------------------------------------| 
B|--------------------------------------|
G|--5-5-5-5-5-5-5-5--7-7-7-7-7-7-7-7----|  
D|--x-x-x-x-x-x-x-x--x-x-x-x-x-x-x-x----|
A|--3-3-3-3-3-3-3-3--5-5-5-5-5-5-5-5----|
e|--------------------------------------|

Riff 9:

Guitar 1:

E|-------------------------------| 
B|-------------------------------|
G|-------------------------------|  
D|-------------------------------|
A|---7p5---7p5----------2--------|
e|-0-----0------3-0-3-5---5-3-5--|

Guitar 2:

E|------------------------------------| 
B|------------------------------------|
G|-9-9-9-9-9-9-9-9-9-9-9-9-9-9-9-9----|  
D|-9-9-9-9-9-9-9-9-9-9-9-9-9-9-9-9----|
A|-7-7-7-7-7-7-7-7-7-7-7-7-7-7-7-7----|
e|------------------------------------|

SOLO:(die slides kan jy as bends speel)

Guitar 1:

E|---------------------------------------------------------------| 
B|-12b13r--------------------------------------------------------|
G|--------11b12r------------------------12----11-----------------|  
D|---------------12/14---7/9\7-9\-------------------7/10\9\7/9\7-|
A|---------------------------------/10----\9----7----------------|
e|---------------------------------------------------------------|

Guitar 2:

E|--------------------------------------------------| 
B|--------------------------------------------------|
G|-9-9-9-9-9-9-9-9--9-9-9-9-9-9-9-9-----------------|  
D|-9-9-9-9-9-9-9-9--9-9-9-9-9-9-9-9--5-5-5--4-x--2--|
A|-7-7-7-7-7-7-7-7--7-7-7-7-7-7-7-7--5-5-5--4-x--2--|
e|-----------------------------------3-3-3--2-x--0--|


Guitar 1:

E|---------------------------------| 
B|---------------------------------|
G|-12/14\12------------------------|  
D|----------12---------------------|
A|-------------12p0-2/3-2---0-5----|
e|------------------------3--------|


Guitar 2:

E|-----------------------------------| 
B|-----------------------------------|
G|-5-5-5-5-5-5-5-5--7-7-7-7-7-7-7-7--|  
D|-5-5-5-5-5-5-5-5--7-7-7-7-7-7-7-7--|
A|-3-3-3-3-3-3-3-3--5-5-5-5-5-5-5-5--|
e|-----------------------------------|

Both Guitars:

E|-------| 
B|-------|
G|--9/7--|  x8
D|--x/x--|
A|--7/5--|
e|-------|

Guitar 1/2:

E|-----------------------------------------| 
B|-8~-----5~----7~-----8~------------------|
G|-9~-----5~----7~-----9~------------------|  
D|-9~-----5~----7~-----9~------------------|
A|-----------------------------------------|
e|-----------------------------------------|

Riff 10:

Both Guitars:

E|-------| 
B|-------|
G|--9/7--|  x8
D|--x/x--|
A|--7/5--|
e|-------|

E|------------------------------------| 
B|------------------------------------|
G|-5-5-5-5-5-5--2-2-2-----------------|  
D|-5-5-5-5-5-5--2-2-2--5-5-5--2-------|
A|-3-3-3-3-3-3--0-0-0--5-5-5--2-------|
e|---------------------3-3-3--0-------|

Riff 11:

Guitar 1:

E|----------------------------|
B|----------------------------|
G|----------------------------|  
D|----------------------------|
A|----7-7p5---5-7-7p5---7p5---|
e|--7-------7---------7-------|

Guitar 2:

E|------------------------------------| 
B|------------------------------------|
G|------------------------------------|  
D|-2-2-2-2-2-2-2-2-2-2-2-2-2-2-2-2----|
A|-2-2-2-2-2-2-2-2-2-2-2-2-2-2-2-2----|
e|-0-0-0-0-0-0-0-0-0-0-0-0-0-0-0-0----|


Both guitars:

E|--------------------------------------| 
B|--------------------------------------|
G|--5-5-5-5-5-5-5-5--7-7-7-7-7-7-7-7----|  
D|--x-x-x-x-x-x-x-x--x-x-x-x-x-x-x-x----|
A|--3-3-3-3-3-3-3-3--5-5-5-5-5-5-5-5----|
e|--------------------------------------|

Both Guitars:

E|-------| 
B|-------|
G|--9/7--|  x8
D|--x/x--|
A|--7/5--|
e|-------|

Eindig op

E|---------------------------------------| 
B|---------------------------------------|
G|--9-9-9-9-9-9-9-9-9-9-9-9-9-9-9-9-9-9--|
D|--9-9-9-9-9-9-9-9-9-9-9-9-9-9-9-9-9-9--|
A|--7-7-7-7-7-7-7-7-7-7-7-7-7-7-7-7-7-7--|
e|---------------------------------------|
Tap to rate this tab
 
# A B C D E F G H I J K L M N O P Q R S T U V W X Y Z