Guitaretab - guitar tabs
Song name
# A B C D E F G H I J K L M N O P Q R S T U V W X Y Z

Fokofpolisiekar - Hemel Op Die Platteland tab

Band: Fokofpolisiekar
Song: HEMEL OP DIE PLATTELAND
Album: As jy met vuur speel sal jy brand
Tab: Pierre Joubert (kitaarpeer@gmail.com)

Ek het vir simplisiteit hoofsaaklik die chords gepost en net die solo getab:

Intro:   Am(pm) Am(pm) Am(pm) F C G	X2

Intro solo: (Kitaar 1)    Am--Am--C--G               X2
            (Kitaar 2):
e|-----------------------------------------------------------------|
B|-----------------------------------------------------------------|
G|-5-5-5-5-5-5-5-5-5-5-5-5-5-5-5-5-9-9-9-10101010107-7-7-9-9-9-9-9-|
D|-----------------------------------------------------------------|
A|-3-3-3-3-3-3-3-3-3-3-3-3-3-3-3-3-7-7-7-8-8-8-8-8-5-5-5-7-7-7-7-7-|
E|-----------------------------------------------------------------|

e|----------------------------------------------------------------------------|
B|----------------------------------------------------------------------------|
G|-5-5-5-5-5-5-5-5-17-17-17-17-17-17-17-17-9-9-9-10101012-12-7-7-7-9-9-9-1010-|
D|----------------------------------------------------------------------------|
A|-3-3-3-3-3-3-3-3-15-15-15-15-15-15-15-15-7-7-7-8-8-8-10-10-5-5-5-7-7-7-8-8--|
E|----------------------------------------------------------------------------|


 Am                       C          GG
Kan jy my skroewe vir my vasdraai?
 Am                  C       GxxGxxG
Kan jy my albasters vir my vind?
 C
Kan jy jou idee van normaal by jou gat opdruk?
 G  F             G         Am (pm)            C(pm) GGxGxGG(pm)
Kan jy, kan jy apatie spel? Kan iemand dalk 'n god bel?
 C
En vir hom se ons het hom nie meer nodig nie
 G  F             G
Kan jy, kan jy apatie spel?
 C             C              G F
Reguleer my, Roetineer my
 (F)                   C     C   G G
Plaas my in 'n boks en merk dit veilig,
 C						         G F
Stuur my dan waarheen al die dose gaan
 (F)                                    G
Stuur my Hemel toe ek dink dis in die Platteland

Solo: (Kitaar 1)
        Am -- Am -- C-- G				X2
        Am Am Am xx Am Am x CCC xx G x G 		X2
        Am -- Am -- C ---| G  (pm)
        Am -- Am -- C ---| G
Am--Am         C             G			X3
          Dis Hemel op die Platteland

Na laaste woorde: Am Am----CC--GG--GG--Am Am----C----G--Am Am

Bo-oor kitaar 1 speel kitaar 2:

Solo: (Kitaar 2)

e|-------------------------5-5-5-5-5-|
B|-7b(9)-9-9r(7)-5-X-X-5h7-5-5-5-5-5-|
G|-----------------------------------|
D|-----------------------------------|
A|-----------------------------------|
E|-----------------------------------|
[ Tab from: http://www.guitaretab.com/f/fokofpolisiekar/63012.html ]
e|-8p7p5-8p7p5-8p7p5-8p7p5-8p7p5-8p7p5-8p7p5-8p7p5-|
B|-------------------------------------------------|
G|-------------------------------------------------|
D|-------------------------------------------------|
A|-------------------------------------------------|
E|-------------------------------------------------|

e|-12p10p8-12p10p8-12p10p8-12p10p8-10p8p7-10p8p7-10p8p7-10p8p7-|
B|-------------------------------------------------------------|
G|-------------------------------------------------------------|
D|-------------------------------------------------------------|
A|-------------------------------------------------------------|
E|-------------------------------------------------------------|

e||-------------------------------------|
B||o------------------------------------|
G||---9/10-X-X-12-X-X-9/10-X------------|
D||--------------------------10-10-X-X--|
A||o--7/8--X-X-10-X-X-7/8--X------------|
E||--------------------------8--8--X-X--|

e|---------------------------------||
B|--------------------------------o||
G|-9/10-X-X-12-X-X-7-7-X-7-7-7-7---||
D|---------------------------------||
A|-7/8--X-X-10-X-X-5-5-X-5-5-5-5--o||
E|---------------------------------||

e|------------------------------------------------------------------|
B|------------------------------------------------------------------|
G|----------------------------------------------9-9-9-10-10-10-9-9--|
D|-10-10-10-10-10-10-10-10-10-10-10-10-10-10-10---------------------|
A|------------------------------------------------------------------|
E|------------------------------------------------------------------|
      PM PM PM PM PM PM PM PM PM PM PM PM PM PM PMPMPMPM PM PM PMPM
e|-----------------------------------------|
B|-----------------------5-5-555555555555--|
G|----------9-9-9--------5-5-555555555555--|
D|-12-12-12-------12-12--5-5-555555555555--|
A|-----------------------3-3-333333333333--|
E|-----------------------------------------|
   PM PM PM PMPMPMPM PM

e|--------------------------------------------------------------|
B|--------------------------------------------------------------|
G|-9-9-10-10-12-12-14-14-16-1616-17-17-171717171717171717171717-|
D|--------------------------------------------------------------|
A|-7-7-8--8--10-10-12-12-14-1414-15-15-151515151515151515151515-|
E|--------------------------------------------------------------|
                                              “Dis hemel op die
                                               plateland”
  Hang op die laaste C-oktaaf tot feitlik die einde van die song (luister die
  song vir die timing)


Dan:
e|-------------------------------------------------------------|
B|-------------------------------------------------------------|
G|-5-5-4-4-5-5-4-4-5-5-4-4-5-5-4-4--ens-----------5-5~~--------|
D|-5-5-5-5-5-5-5-5-5-5-5-5-5-5-5-5--ens-----------3-3~~--------|
A|-3-3-3-3-3-3-3-3-3-3-3-3-3-3-3-3--ens-----------3-3~~--------|
E|------------------------------------------------5-5~~--------|

Thats it! Geniet! Rate dit, speel dit, geniet dit!
Related for Hemel Op Die Platteland tab
Advertisement will be closed in 10 seconds