Song name
# A B C D E F G H I J K L M N O P Q R S T U V W X Y Z

Fold - Gravity tab

-------------------------------------------------------------------------------
			     Gravity
-------------------------------------------------------------------------------

Title: Gravity
Artist: The Fold
Album: This Too Shall Pass
Tabbed by:hellomcfly417


Tuning: Drop D flat [Db Ab Db Gb Bb eb]


Palm Mute= *
Slide Up/Down= / or \
Let Ring= ~

Intro
eb|------------------------|
Bb|------------------------|
Gb|----------5~------------|  [x2]
Db|----7~----5~----3~------|
Ab|----7~----3~----3~------|
Db|----7~----------3~------|

Verse 1 ('there i was...')
eb|----------------------------------------------|
Bb|----------------------------------------------|
Gb|-------5-5-------7-77-------5-5---------------|
Db|--777--5-5--333--7-77--333--5-5--555-5-55-----|
Ab|--777--3-3--333--5-55--333--3-3--555-5-55-----|
Db|--777-------333--------333-------555-5-55-----|
     ***  * *  ***  * **  ***  * *  *** * **

Verse 1 cont. ('just press on and on until...')
eb|----------------------------------------------|
Bb|----------------------------------------------|
Gb|---------5-5-------7-77-------5-5-------------|
Db|----3\---5-5--555--7-77--333--5-5--555-5-55---|
Ab|----3\---3-3--555--5-55--333--3-3--555-5-55---|
Db|----3\--------555--------333-------555-5-55---|
                 ***  * **  ***  * *  *** * **

Pre-Chorus ('thats when it all came screaming back...')
eb|---------------------------------|
Bb|---------------------------------|
Gb|-------------------7-7-7-7-7-7---|
Db|---3-3-3-3-3-3-3-3-7-7-7-7-7-7---|
Ab|---3-3-3-3-3-3-3-3-5-5-5-5-5-5---|
Db|---3-3-3-3-3-3-3-3---------------|

Chorus
eb|---------------------------------------------------------------------------|
Bb|---------------------------------------------------------------------------|
Gb|--5555555555555555---------------------------------------------------------|
Db|--5555555555555555-3333333333333333-7777777777777777-55555555555-xxx-xx----|
Ab|--3333333333333333-3333333333333333-7777777777777777-55555555555-xxx-xx----|
Db|-------------------3333333333333333-7777777777777777-55555555555-xxx-xx----|

eb|-----------------------------------------------------------|
Bb|-----------------------------------------------------------|
Gb|-----------------------------------------5-5------7-7\-----|
Db|--7777777777777777-5555555555555555--333-x-x--000-x-x\-----|
Ab|--7777777777777777-5555555555555555--333-3-3--000-5-5\-----|
Db|--7777777777777777-5555555555555555--333------000----------|

Post Chorus
eb|------------------------|
Bb|------------------------|
Gb|----------5~------------|  [x2]
Db|----7~----5~----3~------|
Ab|----7~----3~----3~------|
Db|----7~----------3~------|

Verse 2 (same as Verse 1)

Pre-Chorus

Chorus 2
eb|---------------------------------------------------------------------------|
Bb|---------------------------------------------------------------------------|
Gb|--5555555555555555---------------------------------------------------------|
Db|--5555555555555555-3333333333333333-7777777777777777-55555555555-xxx-xx----|
Ab|--3333333333333333-3333333333333333-7777777777777777-55555555555-xxx-xx----|
Db|-------------------3333333333333333-7777777777777777-55555555555-xxx-xx----|

eb|--------------------------------------------------------------------------|
Bb|--------------------------------------------------------------------------|
Gb|-----------------------------------------55------77\-----55-----777/9999--|
Db|--7777777777777777-5555555555555555--333-xx--000-xx\-000-xx-000-xxx/9999--|
Ab|--7777777777777777-5555555555555555--333-33--000-55\-000-33-000-555/7777--|
Db|--7777777777777777-5555555555555555--333-----000-----000----000-----------|


Bridge
eb|-----------------------------------------|
Bb|-----------------------------------------|
Gb|-----------55555555----------77777777----| [x2]
Db|--77777777-55555555-33333333-77777777----|
Ab|--77777777-33333333-33333333-55555555----|
Db|--77777777----------33333333-------------|

(Upstrokes)
eb|--------------------------------------------------------------------------|
Bb|--------------------------------------------------------------------------|
Gb|---------------------------------------------------------------777777777--|
Db|----3-33-----5-55-----3-33-----5-55-----3-33-----5-55-----3-33-777777777--|
Ab|--x-3-33-xxx-5-55-xxx-3-33-xxx-5-55-xxx-3-33-xxx-5-55-xxx-3-33-555555555--|
Db|--x-3-33-xxx-5-55-xxx-3-33-xxx-5-55-xxx-3-33-xxx-5-55-xxx-3-33------------|


Fill (Clean/No Distortion)
eb|--------------------------------------------|
Bb|--------------------------------------------|
Gb|--5~----------------------------------------| 
Db|--5~--------3~--------7~--------555---------|
Ab|--3~--------3~--------7~--------555-xxx-xx--|
Db|------------3~--------7~--------555-xxx-xx--|

Final Chorus 
eb|---------------------------------------------------------------------------|
Bb|---------------------------------------------------------------------------|
Gb|--5555555555555555---------------------------------------------------------|
Db|--5555555555555555-3333333333333333-7777777777777777-55555555555-xxx-xx----|
Ab|--3333333333333333-3333333333333333-7777777777777777-55555555555-xxx-xx----|
Db|-------------------3333333333333333-7777777777777777-55555555555-xxx-xx----|

eb|------------------------------------------------------|
Bb|------------------------------------------------------|
Gb|-----------------------------------------55------77\--|
Db|--7777777777777777-5555555555555555--333-xx--000-xx\--|
Ab|--7777777777777777-5555555555555555--333-33--000-55\--|
Db|--7777777777777777-5555555555555555--333-----000------|

Outro
eb|------------------------|
Bb|------------------------|
Gb|------55-----777/9999\--|
Db|--000-xx-000-xxx/xxxx\--|
Ab|--000-33-000-555/7777\--|
Db|--000----000------------|

| /  slide up
| \  slide down
| h  hammer-on
| p  pull-off
| ~  vibrato
| +  harmonic
| x  Mute note
===============================================================================
Tap to rate this tab
# A B C D E F G H I J K L M N O P Q R S T U V W X Y Z