Song name
# A B C D E F G H I J K L M N O P Q R S T U V W X Y Z

Fold - Title Track tab

-------------------------------------------------------------------------------
			     The Title Track - The Fold
-------------------------------------------------------------------------------
Tabbed by:Mike 
Email: chaodgt@yahoo.com


Nobody had a tab so i decided to start one


Tuning: EADGBe

e|---------------------------------------------------------------------------|
B|---------------------------------------------------------------------------|
G|11-11--8--8--6/8--6/8---11-11--8--8--6/8--6\4------------------------------|
D|-x--x--x--x--x----x------x--x--x--x--x----x--------------------------------|
A|-9--9--6--6--4/6--4/6----9--9--6--6--4/6--4\2------------------------------|
E|---------------------------------------------------------------------------|

e|------------------------------------------------------------------------------|
B|------------------------------------------------------------------------------|
G|-9-11--8--6/8--6/8---11-11-11-11--8--8--8--8--6--6--4--4----------------------|
D|-x--x--x--x----x-----x--x--x--x---x--x--x--x--x--x--x--x----------------------|
A|-7--9--6--4/6--4/6---9--9--9--9---6--6--6--6--4--4--2--2----------------------|
E|------------------------------------------------------------------------------|

| /  slide up
| \  slide down
| h  hammer-on
| p  pull-off
| ~  vibrato
| +  harmonic
| x  Mute note
===============================================================================
Tap to rate this tab
# A B C D E F G H I J K L M N O P Q R S T U V W X Y Z