Song name
# A B C D E F G H I J K L M N O P Q R S T U V W X Y Z

Foo Fighters - These Days tab

-----------------------------------------------------------------------------
			   THESE DAYS - Foo Fighters
-----------------------------------------------------------------------------

Song: These Days
Artist: Foo Fighters
Album: Wasting Light
Tabbed by: rd93
Tuning: Standard (EADGBe)

I wrote this by ear after watching it live a couple of times, cause I can't wait for the 
album. So this is only tabbed for one guitar (Dave's) and it probably isn't 100% correct.

Intro/Verse (repeat as necessary):
e|-------------------------------------------------------------------------|
B|-------------------------------------------------------------------------|
G|-------------------------------------------------------------------------|
D|------11---------11----------0----------0--------------------------------|
A|---12----12---12----12----12---12----12---12-----------------------------|
E|-0----------0----------10---------10-------------------------------------|

Pre-chorus:
e|-------------------------------------------------------------------------|
B|-------------------------------------------------------------------------|
G|-------0-------------------------------0-------------------------------0-|
D|---2-------2---2-------0-----------4-------4---4-------0-----------2-----|
A|-3---3---3---3-----2-------2---2-5---5---5---5-----4-------4---4-3---3---|
E|-----------------3---3---3---3-------------------5---5---5---5-----------|

e|---------3-3-3-3-3-3-3-3-3-3-3-------------------------------------------|
B|---------3-3-3-3-3-3-3-3-3-3-3-------------------------------------------|
G|---------0-0-0-0-0-0-0-0-0-0-0-------------------------------------------|
D|---2---2-0-0-0-0-0-0-0-0-0-0-0-------------------------------------------|
A|-3---3---2-2-2-2-2-2-2-2-2-2-2-------------------------------------------|
E|---------3-3-3-3-3-3-3-3-3-3-3-------------------------------------------|

Chorus chords:
A x02220
Em7 022033
Cadd9 x32013
A x02220

two times, then

A 577655 twice. Sorry, I was too lazy to tab out the chords.

After the second chorus, play through the verse a few times, then the first couple notes 
of the pre-chorus, then play the chorus again.
Tap to rate this tab
 
# A B C D E F G H I J K L M N O P Q R S T U V W X Y Z