Song name
# A B C D E F G H I J K L M N O P Q R S T U V W X Y Z

Foo Fighters - Sign tab

-------------------------------------------------------------------------------
                             THE SIGN - Foo Fighters
-------------------------------------------------------------------------------
Tabbed by: khawk94
1/22/14

Tuning: Drop D - DADGBe

Have fun!!

Intro (Guitar 1):
e|---------------------------|-------------------------|
B|---15-15-15-15-15-15-15-15-|-15-15-15-15-15-15-15-15-|
G|---18-18-18-19-19-19-19-18-|-18-16-16-16-16-16-16-16-|
D|---------------------------|-------------------------|
A|---------------------------|-------------------------|
D|---------------------------|-------------------------|


Intro (Guitar 2):
e|---------------------------|
B|---7~----------------------|
G|---7~----------------------|
D|---7~----------------------|
A|---5~----------------------|
D|---0-----------------------|

e|-------------------|-----------------|-----------------|-----------------|
B|---7-7-7-7-7-7-7-7-|-7-7-7-7-7-7-7-7-|-7-7-7-7-7-7-7-7-|-7---------------|
G|---7-7-7-7-7-7-7-7-|-7-7-7-7-7-7-7-7-|-7-7-7-7-7-7-7-7-|-7---------------|
D|---7-7-7-7-7-7-7-7-|-7-7-7-7-7-7-7-7-|-7-7-7-7-7-7-7-7-|-7---------------|
A|---5-5-5-5-5-5-5-5-|-5-5-5-5-5-5-5-5-|-5-5-5-5-5-5-5-5-|-5---------------|
D|---0-0-0-0-0-0-0-0-|-0-0-0-0-0-0-0-0-|-0-0-0-0-0-0-0-0-|-0--/20\---------|

Verse
Both guitars
e|-------------------|-----------------|-----------------|-----------------|
B|---7---7---7---7---|-7---7---7---7---|-7---7---7---7---|-7---7---7---7---|
G|---7---7---7---7---|-7---7---7---7---|-7---7---7---7---|-7---7---7---7---|
D|---7---7---7---7---|-7---7---7---7---|-7---7---7---7---|-7---7---7---7---|
A|---5---5---5---5---|-5---5---5---5---|-5---5---5---5---|-5---5---5---5---|
D|-----0---0---0---0-|---0---0---0---0-|---0---0---0---0-|---0---0---0---0-|

e|-------------------|-----------------|-----------------|-----------------|
B|---7---7---7---7---|-7---7---7---7---|-7---7---7---7---|-7---7---7-------|
G|---7---7---7---7---|-7---7---7---7---|-7---7---7---7---|-7---7---7-------|
D|---7---7---7---7---|-7---7---7---7---|-7---7---7---7---|-7---7---7-------|
A|---5---5---5---5---|-5---5---5---5---|-5---5---5---5---|-5---5---5-------|
D|-----0---0---0---0-|---0---0---0---0-|---0---0---0---0-|---0---0---0-16\-|


Guitar 1 plays the intro x4

Guitar 2 x2
e|-------------------|-----------------|-----------------|-----------------|
B|-------------------|-----------------|-----------------|-----------------|
G|-------------------|-----------------|-----------------|-----------------|
D|---7-7-7-7-7-7-7-7-|-7-7-7-7-7-7-7-7-|-7-7-7-7-7-7-7-7-|-7-7-7-7-7-7-7-7-|
A|---5-5-5-5-5-5-5-5-|-5-5-5-5-5-5-5-5-|-5-5-5-5-5-5-5-5-|-5-5-5-5-5-5-5-5-|
D|---0-0-0-0-0-0-0-0-|-0-0-0-0-0-0-0-0-|-0-0-0-0-0-0-0-0-|-0-0-0-0-0-0-0-0-|

e|-------------------|-----------------|-----------------|-----------------|
B|-------------------|-----------------|-----------------|-----------------|
G|-------------------|-----------------|-----------------|-----------------|
D|---5-5-5-5-5-5-5-5-|-5-5-5-5-5-5-5-5-|-5-5-5-5-5-5-5-5-|-5-5-5-5-5-5-5-5-|
A|---5-5-5-5-5-5-5-5-|-5-5-5-5-5-5-5-5-|-5-5-5-5-5-5-5-5-|-5-5-5-5-5-5-5-5-|
D|---5-5-5-5-5-5-5-5-|-5-5-5-5-5-5-5-5-|-5-5-5-5-5-5-5-5-|-5-5-5-5-5-5-5-5-|

Pre-Chorus Guitar 1 & 2:
e|---------------------------|
B|---------------------------|
G|---------------------------|
D|---------------------------|
A|---------------------------|
D|-----------------------/15-|

e|---------------------------|-------------------------|-----------------|-----------------|
B|---12-12-12-12-12-12-12-12-|-10-10-10-10-10-10 10-10-|-8-8-8-8-8-8-8-8-|-9-9-9-9-9-9-9-9-|
G|---11-11-11-11-11-11-11-11-|--9--9--9--9--9--9--9--9-|-7-7-7-7-7-7-7-7-|-9-9-9-9-9-9-9-9-|
D|----9--9--9--9--9--9--9--9-|--7--7--7--7--7--7--7--7-|-5-5-5-5-5-5-5-5-|-9-9-9-9-9-9-9-9-|
A|----9--9--9--9--9--9--9--9-|--7--7--7--7--7--7--7--7-|-5-5-5-5-5-5-5-5-|-7-7-7-7-7-7-7-7-|
D|----9--9--9--9--9--9--9--9-|--7--7--7--7--7--7--7--7-|-5-5-5-5-5-5-5-5-|-----------------|

e|---------------------------|-------------------------|-----------------|-----------------|
B|---12-12-12-12-12-12-12-12-|-10-10-10-10-10-10 10-10-|-8-8-8-8-8-8-8-8-|-8-8-8-8-8-8-8-8-|
G|---11-11-11-11-11-11-11-11-|--9--9--9--9--9--9--9--9-|-7-7-7-7-7-7-7-7-|-7-7-7-7-7-7-7-7-|
D|----9--9--9--9--9--9--9--9-|--7--7--7--7--7--7--7--7-|-5-5-5-5-5-5-5-5-|-5-5-5-5-5-5-5-5-|
A|----9--9--9--9--9--9--9--9-|--7--7--7--7--7--7--7--7-|-5-5-5-5-5-5-5-5-|-5-5-5-5-5-5-5-5-|
D|----9--9--9--9--9--9--9--9-|--7--7--7--7--7--7--7--7-|-5-5-5-5-5-5-5-5-|-5-5-5-5-5-5-5-5-|

Chorus
Guitar 1 x2
e|---------------------------|-------------------------|
B|---15-15-15-15-15-15-15-15-|-15-15-15-15-15-15-15-15-|
G|---18-18-18-19-19-19-19-18-|-18-16-16--x--x--x--x--x-|
D|---------------------------|----------16-16-16-16-16-|
A|---------------------------|-------------------------|
D|---------------------------|-------------------------| x2

e|---------------------------|-------------------------|-7-7-7-7-7-7-7-7-|-5-5-5-5-5-5-5-5-|
B|---15-15-15-15-15-15-15-15-|-15-15-15-15-15-15-15-15-|-9-9-9-9-9-9-9-9-|-8-8-8-8-8-8-8-8-|
G|---18-18-18-19-19-19-19-18-|-18-16-16--x--x--x--x--x-|-9-9-9-9-9-9-9-9-|-7-7-7-7-7-7-7-7-|
D|---------------------------|----------17-17-17-17-17-|-----------------|-----------------|
A|---------------------------|-------------------------|-----------------|-----------------|
D|---------------------------|-------------------------|-----------------|-----------------|

Guitar 2 x2
e|-------------------|-----------------|-----------------|-----------------|
B|-------------------|-----------------|-----------------|-----------------|
G|-------------------|-----------------|-----------------|-----------------|
D|---7-7-7-7-7-7-7-7-|-7-7-7-7-7-7-7-7-|-7-7-7-7-7-7-7-7-|-7-7-7-7-7-7-7-7-|
A|---5-5-5-5-5-5-5-5-|-5-5-5-5-5-5-5-5-|-5-5-5-5-5-5-5-5-|-5-5-5-5-5-5-5-5-|
D|---0-0-0-0-0-0-0-0-|-0-0-0-0-0-0-0-0-|-0-0-0-0-0-0-0-0-|-0-0-0-0-0-0-0-0-|

e|-------------------|-----------------|-----------------|-----------------|
B|-------------------|-----------------|-----------------|-----------------|
G|-------------------|-----------------|-----------------|-----------------|
D|---5-5-5-5-5-5-5-5-|-5-5-5-5-5-5-5-5-|-2-2-2-2-2-2-2-2-|-5-5-5-5-5-5-5-5-|
A|---5-5-5-5-5-5-5-5-|-5-5-5-5-5-5-5-5-|-2-2-2-2-2-2-2-2-|-5-5-5-5-5-5-5-5-|
D|---5-5-5-5-5-5-5-5-|-5-5-5-5-5-5-5-5-|-2-2-2-2-2-2-2-2-|-5-5-5-5-5-5-5-5-|

Bridge: Almost the same as the Pre-Chorus except I guess the riff serves as the solo on 
lead guitar.
Guitar 1
e|---------------------------|-------------------------|-----------------|-----------------|
B|---12-12-12-12-12-12-12-12-|-10-10-10-10-12-10 10-10-|-8-8-8-8-8-8-8-8-|-9-9-9-9-109-9-9-|
G|---11-11-11-11-11-11-11-11-|--9--9--9--9--9--9--9--9-|-7-7-7-7-7-7-7-7-|-9-9-9-9-9-9-9-9-|
D|---------------------------|-------------------------|-----------------|-----------------|
A|---------------------------|-------------------------|-----------------|-----------------|
D|---------------------------|-------------------------|-----------------|-----------------| x3

e|---------------------------|-------------------------|-1010101010101010|-1010101010101010|
B|---12-12-12-12-12-12-12-12-|-10-10-10-10-12-10 10-10-|-8-8-8-8-8-8-8-8-|-8-8-8-8-8-8-8-8-|
G|---11-11-11-11-11-11-11-11-|--9--9--9--9--9--9--9--9-|-7-7-7-7-7-7-7-7-|-7-7-7-7-7-7-7-7-|
D|---------------------------|-------------------------|-----------------|-----------------|
A|---------------------------|-------------------------|-----------------|-----------------|
D|---------------------------|-------------------------|-----------------|-----------------|

Guitar 2
e|-------------------|-----------------|-----------------|-----------------|
B|-------------------|-----------------|-----------------|-----------------|
G|-------------------|-----------------|-----------------|-9-9-9-9-9-9-9-9-|
D|---9-9-9-9-9-9-9-9-|-7-7-7-7-7-7-7-7-|-5-5-5-5-5-5-5-5-|-9-9-9-9-9-9-9-9-|
A|---9-9-9-9-9-9-9-9-|-7-7-7-7-7-7-7-7-|-5-5-5-5-5-5-5-5-|-7-7-7-7-7-7-7-7-|
D|---9-9-9-9-9-9-9-9-|-7-7-7-7-7-7-7-7-|-5-5-5-5-5-5-5-5-|-----------------|

e|-------------------|-----------------|-----------------|-----------------|
B|-------------------|-----------------|-----------------|-----------------|
G|-------------------|-----------------|-----------------|-9-9-9-9-9-9-9-9-|
D|---9-9-9-9-9-9-9-9-|-7-7-7-7-7-7-7-7-|-5-5-5-5-5-5-5-5-|-9-9-9-9-9-9-9-9-|
A|---9-9-9-9-9-9-9-9-|-7-7-7-7-7-7-7-7-|-5-5-5-5-5-5-5-5-|-7-7-7-7-7-7-7-7-|
D|---9-9-9-9-9-9-9-9-|-7-7-7-7-7-7-7-7-|-5-5-5-5-5-5-5-5-|-----------------|

Outro
Both Guitars
e|-------------------|-----------------|-----------------|-----------------|
B|---7---7---7---7---|-7---7---7---7---|-7---7---7---7---|-7---7---7-\-----|
G|---7---7---7---7---|-7---7---7---7---|-7---7---7---7---|-7---7---7-\-----|
D|---7---7---7---7---|-7---7---7---7---|-7---7---7---7---|-7---7---7-\-----|
A|---5---5---5---5---|-5---5---5---5---|-5---5---5---5---|-5---5---5-\-----|
D|-----0---0---0---0-|---0---0---0---0-|---0---0---0---0-|---0---0---------|

Order (Pretty straightforward):
Intro
Verse
Pre-Chorus
Chorus
Verse
Pre-Chorus
Chorus
Bridge
Intro
Chorus x2 (The phrase is played once the 2nd time through, so play it 3 times in total)
Outro

| /   slide up
| \   slide down
| h   hammer-on
| p   pull-off
| ~   vibrato
| +   harmonic
| x   Mute note
| b   Bend
| pb  Pre-bend
| br  Bend release
| pbr Pre-bend release
| brb Bend release bend

************************************
Tap to rate this tab
# A B C D E F G H I J K L M N O P Q R S T U V W X Y Z