Song name
# A B C D E F G H I J K L M N O P Q R S T U V W X Y Z

Foo Fighters - How I Miss You tab

#

#----------------------------------PLEASE NOTE---------------------------------#
#This file is the author's own work and represents their interpretation of the #
#song. You may only use this file for private study, scholarship, or research. #
#------------------------------------------------------------------------------#

Date: Fri, 29 Nov 1996 15:53:18 GMT-400
From: "." 

how i miss you - foo fighters
tabbed by David Cogswell & Josiah Bean

This is a cool song from their "Big Me" EP.  It might
not be quite right, but anyway, here goes.  I play it 
in dropped-D tuning (low to high- D A D G B E)

 Verse 
e|-------------------------------------------------------------
b|-------------------------------------------------------------
g|-11--------11--------11--13--------13--------13----------13--
d|-------------------------------------------------------------
a|-9---------9---------9---11--------11--------11----------11--
d|-0--0--0---0--0--0---0---0---0--0--0---0--0--0---0---0---0---
1.       How i miss you  [x3]
2.       Did i lose you  [x3]
3.       Do you miss me
         Like i miss you
         If you miss me

 Verse [cont'd]
e|---------------------------------------------------------------
b|---------------------------------------------------------------
g|--9--------9--9--7--------7--7---10-------10----10----10-10-10-
d|---------------------------------------------------------------
a|--7--7--7--7--7--5--5--5--5--5---8--8--8--8--8--8--8--8--8--8--
e|--0--0--0--0--0--0--0--0--0--0---0--0--0--0--0--0--0--0--0--0-- 
1.I should never call          how i hope that you still miss me 
2.Somewhere down the line       hide and seeks alrigt if i find
3.    Never go away        hopefully you'll come and stay someday

e|--------------------------------------------------------------
b|--------------------------------------------------------------
g|--12-12-12-12-12-12-12-12-10-10-10-10-10-10-10-10-13-13-13-13-
d|--------------------------------------------------------------
a|--10-10-10-10-10-10-10-10-8--8--8--8--8--8--8--8--11-11-11-11-
d|--0--0--0--0--0--0--0--0--0--0--0--0--0--0--0--0--0--0--0--0--
          If you're leaving                       come back soon
          that's not easy                         to say
          I will wait here                        dream of you

e|-----------------------------------------------------
b|-----------------------------------------------------
g|--12-12-12-12-12-12-12-12-10-10-10-10-10-10-10-10-5--
d|-----------------------------------------------------
a|--10-10-10-10-10-10-10-10-8--8--8--8--8--8--8--8--3--
e|--0--0--0--0--0--0--0--0--0--0--0--0--0--0--0--0--0--
                all       alone      as       i    ache

 [Now kick on the Distortion]

e|-------------------------------------------------------------
b|-------------------------------------------------------------
g|-11--------11--------11--13--------13--------13----------13--
d|-------------------------------------------------------------
a|-9---------9---------9---11--------11--------11----------11--
d|-0--0--0---0--0--0---0---0---0--0--0---0--0--0---0---0---0---
1.       Did i lose you [x3]
2.       Did you miss me
         Like i miss you
         If you miss me

e|---------------------------------------------------------------
b|---------------------------------------------------------------
g|--9--------9--9--7--------7--7---10-------10----10----10-10-10-
d|---------------------------------------------------------------
a|--7--7--7--7--7--5--5--5--5--5---8--8--8--8--8--8--8--8--8--8--
e|--0--0--0--0--0--0--0--0--0--0---0--0--0--0--0--0--0--0--0--0-- 
1. Somewhere down the line       hide and seeks alrigt if i find
2. Never go away          hopefully you'll come and stay someday

e|--------------------------------------------------------------
b|--------------------------------------------------------------
g|--12-12-12-12-12-12-12-12-10-10-10-10-10-10-10-10-13-13-13-13-
d|--------------------------------------------------------------
a|--10-10-10-10-10-10-10-10-8--8--8--8--8--8--8--8--11-11-11-11-
d|--0--0--0--0--0--0--0--0--0--0--0--0--0--0--0--0--0--0--0--0--
          If you're leaving                       come back soon
          that's not easy                         to say
          I will wait here                        dream of you

e|-----------------------------------------------------
b|-----------------------------------------------------
g|--12-12-12-12-12-12-12-12-10-10-10-10-10-10-10-10-5--
d|-----------------------------------------------------
a|--10-10-10-10-10-10-10-10-8--8--8--8--8--8--8--8--3--
e|--0--0--0--0--0--0--0--0--0--0--0--0--0--0--0--0--0--
                all       alone      as       i    ache

[Now turn the Distortion off]

e|-------------------------------------------------------------
b|-------------------------------------------------------------
g|-11--------11--------11--13--------13--------13----------13--
d|-------------------------------------------------------------
a|-9---------9---------9---11--------11--------11----------11--
d|-0--0--0---0--0--0---0---0---0--0--0---0--0--0---0---0---0---
         How i miss you  [x3]
  [quiet]                       [unplug guitar]
e|---------------------------------------------------------------
b|---------------------------------------------------------------
g|--9--------9--9--7--------7------------------------------------
d|---------------------------------------------------------------
a|--7--7--7--7--7--5--5--5---------------------------------------
e|--0--0--0--0--0--0--0--0--0------------------------------------
1. I should never call          how i hope that you still miss me

That's it.  Have a ball with this one. 



From v7b39@unb.ca Sun Jan 12 17:50:11 1997
Date: Wed, 8 Jan 1997 10:40:43 GMT-400
From: Andrew Cogswell 
To: guitar@olga.net
Subject: how i miss you by foo fighters

how i miss you - foo fighters
tabbed by David Cogswell & Josiah Bean

This is a cool song from their "Big Me" EP.  It might
not be quite right, but anyway, here goes.  I play it 
in dropped-D tuning (low to high- D A D G B E)

 Verse 
e|-------------------------------------------------------------
b|-------------------------------------------------------------
g|-11--------11--------11--13--------13--------13----------13--
d|-------------------------------------------------------------
a|-9---------9---------9---11--------11--------11----------11--
d|-0--0--0---0--0--0---0---0---0--0--0---0--0--0---0---0---0---
1.       How i miss you  [x3]
2.       Did i lose you  [x3]
3.       Do you miss me
         Like i miss you
         If you miss me

 Verse [cont'd]
e|---------------------------------------------------------------
b|---------------------------------------------------------------
g|--9--------9--9--7--------7--7---10-------10----10----10-10-10-
d|---------------------------------------------------------------
a|--7--7--7--7--7--5--5--5--5--5---8--8--8--8--8--8--8--8--8--8--
e|--0--0--0--0--0--0--0--0--0--0---0--0--0--0--0--0--0--0--0--0-- 1.I
should never call          how i hope that you still miss me
2.Somewhere down the line       hide and seeks alrigt if i find 3.   
Never go away        hopefully you'll come and stay someday

e|--------------------------------------------------------------
b|--------------------------------------------------------------
g|--12-12-12-12-12-12-12-12-10-10-10-10-10-10-10-10-13-13-13-13-
d|--------------------------------------------------------------
a|--10-10-10-10-10-10-10-10-8--8--8--8--8--8--8--8--11-11-11-11-
d|--0--0--0--0--0--0--0--0--0--0--0--0--0--0--0--0--0--0--0--0--
          If you're leaving                       come back soon
          that's not easy                         to say
          I will wait here                        dream of you

e|-----------------------------------------------------
b|-----------------------------------------------------
g|--12-12-12-12-12-12-12-12-10-10-10-10-10-10-10-10-5--
d|-----------------------------------------------------
a|--10-10-10-10-10-10-10-10-8--8--8--8--8--8--8--8--3--
e|--0--0--0--0--0--0--0--0--0--0--0--0--0--0--0--0--0--
                all       alone      as       i    ache

 [Now kick on the Distortion]

e|-------------------------------------------------------------
b|-------------------------------------------------------------
g|-11--------11--------11--13--------13--------13----------13--
d|-------------------------------------------------------------
a|-9---------9---------9---11--------11--------11----------11--
d|-0--0--0---0--0--0---0---0---0--0--0---0--0--0---0---0---0---
1.       Did i lose you [x3]
2.       Did you miss me
         Like i miss you
         If you miss me

e|---------------------------------------------------------------
b|---------------------------------------------------------------
g|--9--------9--9--7--------7--7---10-------10----10----10-10-10-
d|---------------------------------------------------------------
a|--7--7--7--7--7--5--5--5--5--5---8--8--8--8--8--8--8--8--8--8--
e|--0--0--0--0--0--0--0--0--0--0---0--0--0--0--0--0--0--0--0--0-- 1.
Somewhere down the line       hide and seeks alrigt if i find 2. Never
go away          hopefully you'll come and stay someday

e|--------------------------------------------------------------
b|--------------------------------------------------------------
g|--12-12-12-12-12-12-12-12-10-10-10-10-10-10-10-10-13-13-13-13-
d|--------------------------------------------------------------
a|--10-10-10-10-10-10-10-10-8--8--8--8--8--8--8--8--11-11-11-11-
d|--0--0--0--0--0--0--0--0--0--0--0--0--0--0--0--0--0--0--0--0--
          If you're leaving                       come back soon
          that's not easy                         to say
          I will wait here                        dream of you

e|-----------------------------------------------------
b|-----------------------------------------------------
g|--12-12-12-12-12-12-12-12-10-10-10-10-10-10-10-10-5--
d|-----------------------------------------------------
a|--10-10-10-10-10-10-10-10-8--8--8--8--8--8--8--8--3--
e|--0--0--0--0--0--0--0--0--0--0--0--0--0--0--0--0--0--
                all       alone      as       i    ache

[Now turn the Distortion off]

e|-------------------------------------------------------------
b|-------------------------------------------------------------
g|-11--------11--------11--13--------13--------13----------13--
d|-------------------------------------------------------------
a|-9---------9---------9---11--------11--------11----------11--
d|-0--0--0---0--0--0---0---0---0--0--0---0--0--0---0---0---0---
         How i miss you  [x3]
  [quiet]                       [unplug guitar]
e|---------------------------------------------------------------
b|---------------------------------------------------------------
g|--9--------9--9--7--------7------------------------------------
d|---------------------------------------------------------------
a|--7--7--7--7--7--5--5--5---------------------------------------
e|--0--0--0--0--0--0--0--0--0------------------------------------ 1. I
should never call          how i hope that you still miss me
Tap to rate this tab
 
# A B C D E F G H I J K L M N O P Q R S T U V W X Y Z