Song name
# A B C D E F G H I J K L M N O P Q R S T U V W X Y Z

For All Those Sleeping - Outspoken tab

Its easy, but, hey, nobody else posted it yet
so strap in!

Drop B Tuning
B F# B E G# C#

|------------------------------------------------------|
|------------------------------------------------------|
|------------------------------------------------------|
|------------------------------------------------------|
|---1---0-0---0-0---0---0-0---0-0-0---0-0-0--0--0--0---|
|---1---0-0---0-0---0---0-0---0-0-0---0-0-0--0--0--0---|

|----------------------------------------------|
|----------------------------------------------|
|----------------------------------------------|
|----------------------------------------------|
|---1-0-0---0-0--0--0-0-----0-0-0--0-0-0-0-0---|
|---1-0-0---0-0--0--0-0-----0-0-0--0-0-0-0-0---|

|------------------------------------------------------------|
|------------------------------------------------------------|
|------------------------------------------------------------|
|------------------------------------------------------------|
|-------0-0--0--0-0---0-0-0--0--0-0-0--0--1--0-0--0-0-0-0-0--|
|---1b--0-0--0--0-0---0-0-0--0--0-0-0--0--1--0-0--0-0-0-0-0--|

|-------------------------------------------------------------|
|-------------------------------------------------------------|
|-------------------------------------------------------------|
|-------------------------------------------------------------|
|--1-0-1--0-0--0--0-0---0-0--0-0--1-1-1--1--0-0--0-0--0--0-0--|
|--1-0-1--0-0--0--0-0---0-0--0-0--1-1-1--1--0-0--0-0--0--0-0--|
Tap to rate this tab
# A B C D E F G H I J K L M N O P Q R S T U V W X Y Z