Song name
# A B C D E F G H I J K L M N O P Q R S T U V W X Y Z

For Amusement Only - Amy tab

 For Amusment Only - AMY
 Submited By hurley182guy@hotmail.com

 Intro
|-----------|
|-----------|
|-----------|
|--7--3--5--|
|--7--3--5--|
|--5--1--3--|

 Verse
|--------------|
|--------------|
|--------------|
|-----3--5-----|
|--7--0--3--5--|
|--5--------3--|

 Chorus
|--------------------|
|--------------------|
|-----5-----5--------|
|--7--5--3--5--5--2--|
|--7--3--3--3--5--2--|
|--5-----1-----3--0--|

 Bridge
|--------------------|
|--------------------|
|--------------------|
|--7--0--5--2--3--2--|
|--7--3--5--3--3--2--|
|--5-----3-----1--0--|

 Scream Like Chuckles!

 Ending
|-----------------------|
|-----------------------|
|--------------5--------|
|--7--7--7--7--5--3--5--|
|--7--7--7--7--3--3--5--|
|--5--5--5--5-----1--3--|
 
 End on
|-----|
|-----|
|-----|
|--7--|
|--7--|
|--5--|

Tap to rate this tab
 
# A B C D E F G H I J K L M N O P Q R S T U V W X Y Z