Guitaretab - guitar tabs
Song name
# A B C D E F G H I J K L M N O P Q R S T U V W X Y Z

For Amusement Only - Strangers tab

Band - For Amusement Only
Song - Strangers
Album - One For The Team
 
Email: bransden69@hotmail.com

+ - Mute
~ - Let Ring
[ Tab from: http://www.guitaretab.com/f/for-amusement-only/130163.html ]
e|-------------------------------------------|
B|-------------------------------------------|
G|-------------------------------------------|
D|-9-9-----9-9-----996-----------------------|
A|-9-9-----9-9-----996--- (x2) --------------|
E|-7-7-----7-7-----764-----------------------|
  
e|--------------------------------------------------|
B|--------------------------------------------------|
G|--------------------------------------------------|
D|-9-9999-9-9999-4-6666-996-------------------------|
A|-9-9999-9-9999-4-6666-996---(x2)------------------|
E|-7-7777-6-6666-4-4444-764-------------------------|
     ++++   ++++   ++++            <----Fast
  (Chorus)
e|--------------------------------------------------|
B|--------------------------------------------------|
G|------4~------------------------------------------|
D|-9~---4~---2~---4~--------------------------------|
A|-9~---2~---2~---4~--- (x2)------------------------|
E|-7~--------0~---2~--------------------------------|
Related for Strangers tab