Song name
# A B C D E F G H I J K L M N O P Q R S T U V W X Y Z

Forever The Sickest Kids - What Do You Want From Me tab

-------------------------------------------------------------------------------
	     What do you want from me - Forever the sickest kids
-------------------------------------------------------------------------------
Tabbed by: Coolschrank
Tuning: EADGBe



-------------------
 Intro and Refrain 
-------------------

	--1. Guitar--
In the Refrain the Powerchords are strummed through for one bar.
e|---------------------------------------------------------------------------|
B|---------------------------------------------------------------------------|
G|---------------------------------------------------------------------------|
D|-8-8-------5-5---------8-8-------5-5---------------------------------------|
A|-6-6--8-8--3-3--6-6----6-6--8-8--3-3--6-6----------------------------------|
E|------6-6-------4-4---------6-6-------4-4----------------------------------|

	--2. Guitar--
Maybe the Bassnotes (look at the verse) are played, instead of the first 4. 
But i dont think so. 
e|------6---------6---------6---------6--------------------------------------|
B|--4-4---4---4-4---4---4-4---4---4-4---4------------------------------------|
G|---------------------------------------------------------------------------|
D|---------------------------------------------------------------------------|
A|---------------------------------------------------------------------------|
E|---------------------------------------------------------------------------|

	--3. Guitar--
Only play over the Refrain. 
e|----16-15------------------------------------------------------------------|
B|----------18-16--------- Repeat all over the Refrain ----------------------|
G|---------------------------------------------------------------------------|
D|---------------------------------------------------------------------------|
A|---------------------------------------------------------------------------|
E|---------------------------------------------------------------------------|



-------
 Verse
-------

Divided in two parts and one Break

	--1. Guitar--
First Part. The Bass-Notes are not so nice to pick, so I dont play them. They are not necessary.
The Second time, stop on the low G#. 
e|-------3---------3---------3---------3-------------------------------------|
B|-----4---4-----4---4-----4---4-----4---4-----------------------------------|
G|-------------------------------(1)-----------------------------------------| 2x
D|-(1)-----------------------------------------------------------------------|
A|-----------(1)-------(3)---------------------------------------------------|
E|-----------------------------or(4)-----------------------------------------|

	--2. Guitar--
The Delay ist set on 5/16 or 1/4+1/16 and repeats 1 time. 
e|---------------------------------------------------------------------------|
B|---------------------------------------------------------------------------|
G|---------------------------------------------------------------------------|
D|-5-5-----------------------------------------------------------------------|
A|-3-3--6-6------------------------------------------------------------------|
E|------4-4------------------------------------------------------------------|


	--1. Guitar--
Second Part. Dont know if 3 on e-String is played. I dont pick it. The Rhythm is Offbeat. 
I think its best to beginn strumming with an upstroke. 
     v  /\     v  /\     v  /\     v  /\     
e|--(3)-(3)---(3)-(3)---(3)-(3)---(3)-(3)------------------------------------|
B|---4---4-----4---4-----4---4-----4---4-------------------------------------|
G|---3---3-----3---3-----3---3-----3---3-------------------------------------| 4x
D|---------------------------------------------------------------------------|
A|---------------------------------------------------------------------------|
E|---------------------------------------------------------------------------|


First Break (I think its an F, but it may be its an A#. Not sure...)
e|---------------------------------------------------------------------------|
B|---------------------------------------------------------------------------|
G|---------------------------------------------------------------------------|
D|-10-10---10-10---10-10-10-10-10-10-10-10-10-10-----------------------------|
A|--8--8----8--8----8--8--8--8--8--8--8--8--8--8-----------------------------|
E|---------------------------------------------------------------------------|

Second Break
e|---------------------------------------------------------------------------|
B|---------------------------------------------------------------------------|
G|---------------------------------------------------------------------------|
D|-------------------5-5--5-5--5-5-5-5-5-5-5-5-5-5---------------------------|
A|--3-3-3-3-3-3-3-3--3-3--3-3--3-3-3-3-3-3-3-3-3-3---------------------------|
E|--1-1-1-1-1-1-1-1----------------------------------------------------------|



-----------
 Interlude
-----------

Every Powerchord 8 times. After this, there's a party without guitars.
e|---------------------------------------------------------------------------|
B|---------------------------------------------------------------------------|
G|---------------------------------------------------------------------------|
D|--------8--7---------------------------------------------------------------|
A|--3--6--6--5---3--6--8--8--------------------------------------------------|
E|--1--4---------1--4--6--6--------------------------------------------------|



-------
 Order
-------
Intro 
Verse (with first break)
Refrain
Verse (with second break)
Refrain
Interlude 
Refrain 3x


Contact me for correction or friendship.

| /  slide up
| \  slide down
| h  hammer-on
| p  pull-off
| ~  vibrato
| +  harmonic
| x  Mute note
===============================================================================
Tap to rate this tab
# A B C D E F G H I J K L M N O P Q R S T U V W X Y Z