Song name
# A B C D E F G H I J K L M N O P Q R S T U V W X Y Z

Fort Minor - Whered You Go tab

-----------------------------------------------------------------------
Where’d You Go (BBB Remix) - Fort Minor
-----------------------------------------------------------------------
Tabbed by: cjpm105
Email: cjpm105@yahoo.com

Tuning: Standard or Drop D (low E string isn’t used), half step down

Intro
eb|------------------------------------------------------------------|
Bb|--------------------------13------------------------------13------|
Gb|------12------10----------------------10------12------------------| 
Db|--10------10------10--10------10--10------10------10--10------10--|    
Ab|------------------------------------------------------------------|
Db|------------------------------------------------------------------|

eb|------------------------------------------------------------------|
Bb|--------------------------13------------------------------13------|
Gb|------12------10----------------------10------10------------------| 
Db|--10------10------10--10------10--10------10------10--10------10--|    
Ab|------------------------------------------------------------------|
Db|------------------------------------------------------------------|

eb|------------------------------------------------------------------|
Bb|--------------------------13------------------------------13------|
Gb|------12------10----------------------10------12------------------| 
Db|--10------10------10--10------10--10------10------10--10------10--|    
Ab|------------------------------------------------------------------|
Db|------------------------------------------------------------------|

eb|------------------------------------------------------------------|
Bb|--------------------------13------------------------------13------|
Gb|------12------10----------------------10------10------------------| 
Db|--10------10------10--10------10--10------10------10--10------10--|    
Ab|------------------------------------------------------------------|
Db|------------------------------------------------------------------|

eb|------------------------------------------------------------------|
Bb|--------------------------13------------------------------13------|
Gb|------12------10----------------------10------12------------------| 
Db|--10------10------10--10------10--10------10------10--10------10--|    
Ab|------------------------------------------------------------------|
Db|------------------------------------------------------------------|


eb|------------------------------------------------------------------|
Bb|--------------------------13------------------------------13------|
Gb|------12------10----------------------10------10------------------| 
Db|--10------10------10--10------10--10------10------10--10------10--|    
Ab|------------------------------------------------------------------|
Db|------------------------------------------------------------------|

eb|------------------------------------------------------------------|
Bb|------------------------------------------------------------------|
Gb|------12------10~~------------------------------------------------| 
Db|--10------10------------------------------------------------------|    
Ab|------------------------------------------------------------------|
Db|------------------------------------------------------------------|

Chorus
eb|------------------------------------------------------------------|
Bb|--------------------------13------------------------------13------|
Gb|------12------10----------------------10------12------------------| 
Db|--10------10------10--10------10--10------10------10--10------10--|    
Ab|------------------------------------------------------------------|
Db|------------------------------------------------------------------|

eb|------------------------------------------------------------------|
Bb|--------------------------13------------------------------13------|
Gb|------12------10----------------------10------10------------------| 
Db|--10------10------10--10------10--10------10------10--10------10--|    
Ab|------------------------------------------------------------------|
Db|------------------------------------------------------------------|

eb|------------------------------------------------------------------|
Bb|--------------------------13------------------------------13------|
Gb|------12------10----------------------10------12------------------| 
Db|--10------10------10--10------10--10------10------10--10------10--|    
Ab|------------------------------------------------------------------|
Db|------------------------------------------------------------------|

eb|------------------------------------------------------------------|
Bb|--------------------------13------------------------------13------|
Gb|------12------10----------------------10------10------------------| 
Db|--10------10------10--10------10--10------10------10--10------10--|    
Ab|------------------------------------------------------------------|
Db|------------------------------------------------------------------|

eb|------------------------------------------------------------------|
Bb|------------------------------------------------------------------|
Gb|------12------10~~------------------------------------------------| 
Db|--10------10------------------------------------------------------|    
Ab|------------------------------------------------------------------|
Db|------------------------------------------------------------------|

Outro
eb|----------------------------------------10------10------8--|
Bb|------10------8--------8------10---------------------------|
Gb|--10------10-------10-----10--------10------10------10-----| 
Db|-----------------------------------------------------------|    
Ab|-----------------------------------------------------------|
Db|-----------------------------------------------------------|

eb|------10----------|
Bb|--------------10--|
Gb|--10------10------| 
Db|------------------|    
Ab|------------------|
Db|------------------|

eb|----------------------------------------10------10------8--|
Bb|------10------8--------8------10---------------------------|
Gb|--10------10-------10-----10--------10------10------10-----| 
Db|-----------------------------------------------------------|    
Ab|-----------------------------------------------------------|
Db|-----------------------------------------------------------|

eb|------10----------|
Bb|--------------10--|
Gb|--10------10------| 
Db|------------------|    
Ab|------------------|
Db|------------------|

eb|----------------------------------------10------10------8--|
Bb|------10------8--------8------10---------------------------|
Gb|--10------10-------10-----10--------10------10------10-----| 
Db|-----------------------------------------------------------|    
Ab|-----------------------------------------------------------|
Db|-----------------------------------------------------------|

eb|------10----------|
Bb|--------------10--|
Gb|--10------10------| 
Db|------------------|    
Ab|------------------|
Db|------------------|

eb|----------------------------------------10------10------8--|
Bb|------10------8--------8------10---------------------------|
Gb|--10------10-------10-----10--------10------10------10-----| 
Db|-----------------------------------------------------------|    
Ab|-----------------------------------------------------------|
Db|-----------------------------------------------------------|

| /  slide up
| \  slide down
| h  hammer-on
| p  pull-off
| ~  vibrato
| +  harmonic
| x  Mute note
=======================================================================
Tap to rate this tab
# A B C D E F G H I J K L M N O P Q R S T U V W X Y Z