Song name
# A B C D E F G H I J K L M N O P Q R S T U V W X Y Z

Fort Minor - Believe Me tab

|---------------------------------------------------|
|---------------------------------------------------|
|----8----8--8h10p8h10-----8---8--8h10p8h10---------|
|-10---10----------------8---8----------------------|
|---------------------------------------------------|
|---------------------------------------------------|

|---------------------------------------------------|
|---------------------------------------------------|
|----8----8--8h10p8h10-----8---8--8h10p8h10---------|
|-7----7-----------------6---6----------------------|
|---------------------------------------------------|
|---------------------------------------------------|

|---------------------------------------------------|
|---------------------------------------------------|
|----8----8--8h10p8h10-----8---8--8h10p8h10---------|
|-10---10----------------8---8----------------------|
|---------------------------------------------------|
|---------------------------------------------------|

|---------------------------------------------------|
|---------------------------------------------------|
|----8----8--8h10p8h10-----8---8--------------------|
|-7----7-----------------6---6----5-----------------|
|---------------------------------------------------|
|---------------------------------------------------|


Repeat

This track riff should be played with delay....


Chorus
|---3--3-1---1-3-1------------1----------1-----1-----|
|-1--------4-------4-4--1-4-1---1--1-4-1---4-1---4-1-|
|----------------------------------------------------|
|----------------------------------------------------|
|----------------------------------------------------|
|----------------------------------------------------|

|-3--3-1---1-3-1------------1----------1-----1-|
|--------4-------4-4--1-4-1---1--1-4-1---4-1---|
|----------------------------------------------|
|----------------------------------------------|
|----------------------------------------------|
|----------------------------------------------|


Go BEARS!
Tap to rate this tab
 
# A B C D E F G H I J K L M N O P Q R S T U V W X Y Z