Song name
# A B C D E F G H I J K L M N O P Q R S T U V W X Y Z

Foster The People - Pumped Up Kicks tab

-------------------------------------------------------------------------------
			     Pumped Up Kicks - Foster the People
-------------------------------------------------------------------------------
Tabbed by:sangle94

Tuning: Standard

Capo 7

e|---------------------------------------------------------------------------|
B|---------------------------------------------------------------------------|
G|---------------------------------------------------------------------------|
D|---------------------------0---0-0-----------------------------------------|
A|---------------------0-2------------2---0---0-0----------------------------|
E|--0---0-0--2--3--3-------------------------------2--0----------------------|

e|---------------------------------------------------------------------------|
B|---------------------------------------------------------------------------|
G|---------------------------------------------------------------------------|
D|---------------------------0---0-0h2-0-------------------------------------|
A|---------------------0-2----------------2--0--0-0h2-0----------------------|
E|--0---0-0--2--3--3---------------------------------------3--0--------------|

e|--0-----------3----------------0---0h2--0---0---0-------0--0--0--0----0----|
B|--0-----------0----------------3---3----3---3---2-------3--3--2--0----0----|
G|--0-----------0----------------2---2----2---2---2-------2--2--2--2----0----|
D|--2-----------0----------0--0--0---0----0---0---2-------2--2--2--2----2----|
A|--2-----------2------0h2-------0---0----0---0---0-------0--0--0--0----2----|
E|--0---0-0--2--3----------------2---2----2---2---0-------0--0--0--0----0----|


Usually, just the bass line (lines one and two) are played during the verses. In between 
I play the riff (line three), and during the chorus I play the bare chords (E min, G, 
D, A)
Tap to rate this tab
# A B C D E F G H I J K L M N O P Q R S T U V W X Y Z