Song name
# A B C D E F G H I J K L M N O P Q R S T U V W X Y Z

Four Year Strong - Shes So High tab

She's So High, Cover by Four Year Strong.
From the Album Explains It All.

NOTICE** Four Year Strong mainly plays in D Tuning (D G C F A D) for the majority of 
songs, including there covers. This song is tabbed out in Drop-D cause that's how I first 
it. I played the tab along with the song, so it sounds pretty accurate.
Also, most of the guitar parts are the same as the original, so not too much has changed 
FYS's version.

Intro|
-----

Lead.                                 *** This is also the keyboard notes. (Just a gues, Btw).
e|-----5-7---7-------5---7---9-7-5--|
B|---5-----------5------------------|
G|----------------------------------|
D|-7--------------------------------|
A|----------------------------------|
D|----------------------------------|


Rhythm:
e|----------------------------------|
B|----------------------------------|
G|----------------------------------|
D|-7-7-7-7-7-7-7-7-7-7-7-7-7-7-7-7--|
A|---------9-9-9-9-7-7-7-5-5-5-5-5--|
D|----------------------------------|

Verse|
-----

Rhythm:
e|----------------------------------|
B|----------------------------------|
G|----------------------------------|
D|-7-7-7-7-7-7-7-7-7-7-7-7-7-7-7-7--|
A|---------9-9-9-9-7-7-7-5-5-5-5-5--|
D|----------------------------------|



Chorus|
------

Both Guitars.
e|------------------------------------|
B|------------------------------------|
G|-4-4--44/7-7--77--------------------|
D|-4-4--44/7-7--77--77-7-77--77-7-77--|
A|-2-2--22/5-5--55--77-7-77--77-7-77--|
D|------------------77-7-77--66-6-66--|


2nd Verse|
---------

Rhythm:
e|----------------------------------|
B|----------------------------------|
G|----------------------------------|
D|-7-7-7-7-7-7-7-7-7-7-7-7-7-7-7-7--|
A|---------9-9-9-9-7-7-7-5-5-5-5-5--|
D|----------------------------------|


Then...
e|-----------------|
B|-----------------|
G|-2--2------------|
D|-2--2-4--4-2--0--|
A|-0--0-4--4-2--0--|
D|------4--4-2--0--|

Then repeat Chorus.


Solo|    *Solo is the same as the original, just a bit faster.
----

Lead.
e|--------------------------------------------------|
B|-12b13b12--10-------12b13b12--10------------------|
G|---------------12-----------------11--11----------|
D|--------------------------------------------------|
A|--------------------------------------------------|
D|--------------------------------------------------|

e|-----------------------------------------------------------------|
B|---------------------------------------------------------17------|
G|-12p12p10---------------10-----12----14------------14------------|
D|-----------10-----12---------------------------------------------|
A|-----------------------------------------------------------------|
D|-----------------------------------------------------------------|

e|---------------------17p12----------14----15----14----12----------------|
B|-15-----14p------------------------------------------------------12-----|
H|---------------14-------------------------------------------------------|
D|------------------------------------------------------------------------|
A|------------------------------------------------------------------------|
D|------------------------------------------------------------------------|


Rhythm.   As the solo is being played...
e|---------------------------------|
B|---------------------------------|
G|---------------------------------|
D|-7-7--77-7-7--77-000-00--000-00--|
A|-7-7--77-7-7--77-000-00--000-00--|
D|-7-7--77-6-6--66-000-00--000-00--|
                   ... ..  ... ..

Verse
then Chorus again.

That's All!


Tabbed by Brando.
Tap to rate this tab
 
# A B C D E F G H I J K L M N O P Q R S T U V W X Y Z