Song name
# A B C D E F G H I J K L M N O P Q R S T U V W X Y Z

Framing Hanley - Weight Of The World chords

Highlighted       Show chord diagrams
This is my first song that I've done on here, but I'm pretty sure it's very
accurate. The beginning is piano, but I just play the chords with my guitar.
Hope this helps. I haven't seen any songs off of Framing Hanley's new album
"A Promise To Burn" yet, but it just came out a few days ago.....

Capo: 1st fret.
Chord Forms:
    F                   E/F       Dm         C                   A#
|--(1)--|---Optional |-------| |---1---| |--(0)--|---Optional |---1---|
|---1---|            |---1---| |---3---| |---1---|            |---3---|
|---2---|            |---2---| |---2---| |---0---|            |---3---|
|---3---|            |---2---| |---0---| |---2---|            |---3---|
|---3---|            |---3---| |-------| |---3---|            |---1---|
|-------|            |-------| |-------| |-------|            |-------|

Intro: F
F           E/F        Dm       C      A#
Who's to say there's a way this has to end.
      Dm          C
We're writing our own rules,
F            E/F       Dm        C         A#
Who's to blame give me names and what they said.
   Dm             C         A#
Oh how could they hurt you
                      Dm          C       A#
And when you crumble away under pressure
                         Dm               C      A#
You need to borrow my strength and I'll let ya.
                      A#                     C
It's getting heavier, hold, hold it steadier I see


Chorus
F       E/F                 Dm
Life is throwing you curves
   A#
You can make it
F           E/F
Take it in, try again
Dm            A#
You don't deserve this
F      E/F            Dm
I just wanna save you
   A#
You can take it
F            E/F
On the chin, try again
Dm
You'll make it
  A#              F             E/F             Dm
You don't have to carry the weight of the world
  C               A#            C         F
You don't have to carry the weight of the world


Verse 2
F       E/F       Dm        C         A#
Separate what you hate from what you love
Dm           C       A#
Once and for all and
                   Dm        C      A#
If you tumble my way I can catch ya
                    Dm          C     A#
If you follow my lead and I'll bet ya
                      A#                     C
It's feeling heavier, hold, hold it steadier I see


Chorus
F       E/F                 Dm
Life is throwing you curves
   A#
You can make it
F           E/F
Take it in, try again
Dm            A#
You don't deserve this
F      E/F            Dm
I just wanna save you
   A#
You can take it
F            E/F
On the chin, try again
Dm
You'll make it
  A#              F             E/F             Dm
You don't have to carry the weight of the world
  C               A#            C         F
You don't have to carry the weight of the world


Solo
e|------------------11-9-11-9----9------|
B|----------------------------11---11-9-|
G|-8-6-8-6---6--------------------------|
D|---------8---8-6----------------------|
A|--------------------------------------|
E|--------------------------------------|
(Octaves)
e|--------------------------------------------------|
B|-9-9-9-9-9/7-7-7-7-7-7-7--4-4-4-4-4/7-7-7-7-7-7-7-|
G|--------------------------------------------------|
D|-6-6-6-6-6/4-4-4-4-4-4-4--0-0-0-0-0/4-4-4-4-4-4-4-|
A|--------------------------------------------------|
E|--------------------------------------------------|
 "/" means to slide from the fret before it to the one after.


Chorus
F       E/F              Dm
Life is throwing you curves
  A#
You can make it
F           E/F
Take it in, try again
Dm           A#
You don't deserve this
F      E/F         Dm
I just wanna save you
  A#
You can take it
F            E/F
On the chin, try again
Dm
You'll make it
 A#               F         E/F                 Dm
You don't have to carry the weight of the world
      A#                C
Don't have to carry the weight
F          E/F           Dm
Carry the weight of the world
 C                A#          C                 F
You don't have to carry the weight of the world
         E/F           Dm       C      A#
Who's to say there's a way this has to end?
Tap to rate this tab
 
# A B C D E F G H I J K L M N O P Q R S T U V W X Y Z