Francesqa - Boy tab

Hey, Only the intro/ beginning of the verse.
Slowly working on the rest of the song :)

DADGBe :)

Intro
e -------------------------------------------------|
b -------------------------------------------------|
g ----4--------4------4-4-4-------4------4---------|
d --------0-------0----------0-------0-------------|
a ---------3-------3----------3-------3------------|
d ----5--------5------5-5-5-------5------5---------|

Verse
e -------------------------------------------------|
b -------------------------------------------------|
g ----4--------4------4-4-4-------4------4---------|
d --------0-------0----------0-------0-------------|
a ---------3-------3----------3-------3------------|
d ----5--------5------5-5-5-------5------5---------|
Hey there lonely...


e -------------------------------------------------|
b ----------------0--0---------------0--0----------|
g ----2-------0----------2-------0-----------------|
d --------4------------------4---------------------|
a -------------------------------------------------|
d ----2---2---2---2--2---2---2---2---2--0----------|
Won't you come and use me..

e -------------------------------------------------|
b -------------------------------------------------|
g ----4--------4------4-4-4-------4------4---------|
d --------0-------0----------0-------0-------------|
a ---------3-------3----------3-------3------------|
d ----5--------5------5-5-5-------5------5---------|
As a shield against those flying hands


e -------------------------------------------------|
b ----------------0--0---------------0--0----------|
g ----2-------0----------2-------0-----------------|
d --------4------------------4---------------------|
a -------------------------------------------------|
d ----2---2---2---2--2---2---2---2---2--0----------|
Those hands that made those marks on your skin...


Thats all for the moment, Hope it gives you a jist to the song, so you can try and 
it out for yourself :) x
Tap to rate this tab
 
# A B C D E F G H I J K L M N O P Q R S T U V W X Y Z