Song name
# A B C D E F G H I J K L M N O P Q R S T U V W X Y Z

Francisco Tarrega - Adelita tab

        Adelita - Francisco Tárrega 
 ___________________________________________
| This fingerpicked little treat isn't any  |
| harder to learn than one of my other tabs,|
| Lagrima. It has a little more symbols in  |
| it, but I'm gonna leave an explanation of | 
| those further down in this text. The song |
| also has the excact same structure as     |
| Lagrima, easy to remember!                |
|                                           |
| Here is the structure of Adelita:         |
|                                           | 
|                 Structure:                |
|               1. Part 1                   |
|               2. Part 1                   |
|               3. Part 2                   |
|               4. Part 2                   |
|               5. Part 1                   |
|               6. Part 1                   |
|                                           | 
| The structure of this song is not         |
| complicated at all!                       |
|                                           |
| Here are the symbols used in this tabs and|
| the meaning of them:                      |
|                                           |
| / - Slide upwards (from lower to higher ) |
|                   (fret.                ) |
|                                           |
| h - hammer on (bang your finger onto the )|
|               (string after you've played)|
|               (it.                       )|
|                                           |
| p - pull of   (pull of your finger to get)|
|               (a different note.         )|
|                                           |
| If anyone notice any mistakes in the tab, |
| please notify me at zing.moment@gmail.com.|
|                                           |  
| Enjoy! :)                                 |
 ___________________________________________

Part 1:

e|-12-11-7-7--10-8---------8-7---------------0---7--------------|
B|---------8-------7-------------8-7h8p7---0---8----------------|
G|---------9---------9---------8-8-------9----------------------|
D|---------------------10--------7------------------------------|
A|--------------------------------------------------------------|
E|-0----------0------------7------------------------------------|

e|-12-11-7-7--10-8---------8-7------0---------------------------|
B|---------8-------7-------------8------------------------------|
G|---------9---------9---------8-8------------------------------|
D|---------------------10--------7------------------------------|
A|--------------------------------------------------------------|
E|-0----------0------------7--------0---------------------------|

Repeat part 1:

e|-12-11-7-7--10-8---------8-7---------------0---7--------------|
B|---------8-------7-------------8-7h8p7---0---8----------------|
G|---------9---------9---------8-8-------9----------------------|
D|---------------------10--------7------------------------------|
A|--------------------------------------------------------------|
E|-0----------0------------7------------------------------------|

e|-12-11-7-7--10-8---------8-7------0---------------------------|
B|---------8-------7-------------8------------------------------|
G|---------9---------9---------8-8------------------------------|
D|---------------------10--------7------------------------------|
A|--------------------------------------------------------------|
E|-0----------0------------7--------0---------------------------|

Part 2:

e|-4---7---------4---7-------4-7/12-11-11h12p11-9-9h11p9-7------|
B|---5---5--2------5---5--2--------------------------------7----|
G|---4---6---------4---6-----4-------------------------------8--|
D|---6-------------6-------------------------------------------9|
A|-------0-------------0-----0----------------------------------|
E|-0-------------0----------------------------------------------|

e|---0-------------------------------------------0--------------|
B|---0----2-----------------------------------4--0--------------|
G|-----4--------1-4/13-13-8-9h11p9-------6-4--2--1--------------|
D|-6------2--4--------------8------8--9--7-6--4--2--------------|
A|--------0-----------------------------------2-----------------|
E|-0------------0-----------8---------7--------------0----------|

Repeat part 2:

e|-4---7---------4---7-------4-7/12-11-11h12p11-9-9h11p9-7------|
B|---5---5--2------5---5--2--------------------------------7----|
G|---4---6---------4---6-----4-------------------------------8--|
D|---6-------------6-------------------------------------------9|
A|-------0-------------0-----0----------------------------------|
E|-0-------------0----------------------------------------------|

e|---0-------------------------------------------0--------------|
B|---0----2-----------------------------------4--0--------------|
G|-----4--------1-4/13-13-8-9h11p9-------6-4--2--1--------------|
D|-6------2--4--------------8------8--9--7-6--4--2--------------|
A|--------0-----------------------------------2-----------------|
E|-0------------0-----------8---------7--------------0----------|

Repeat part 1 again:

e|-12-11-7-7--10-8---------8-7---------------0---7-------------|
B|---------8-------7-------------8-7h8p7---0---8---------------|
G|---------9---------9---------8-8-------9---------------------|
D|---------------------10--------7-----------------------------|
A|-------------------------------------------------------------|
E|-0----------0------------7-----------------------------------|

e|-12-11-7-7--10-8---------8-7------0--------------------------|
B|---------8-------7-------------8-----------------------------|
G|---------9---------9---------8-8-----------------------------|
D|---------------------10--------7-----------------------------|
A|-------------------------------------------------------------|
E|-0----------0------------7--------0--------------------------|

Repeat part 1 one last time:

e|-12-11-7-7--10-8---------8-7---------------0---7-------------|
B|---------8-------7-------------8-7h8p7---0---8---------------|
G|---------9---------9---------8-8-------9---------------------|
D|---------------------10--------7-----------------------------|
A|-------------------------------------------------------------|
E|-0----------0------------7-----------------------------------|

e|-12-11-7-7--10-8---------8-7------0--------------------------|
B|---------8-------7-------------8-----------------------------|
G|---------9---------9---------8-8-----------------------------|
D|---------------------10--------7-----------------------------|
A|-------------------------------------------------------------|
E|-0----------0------------7--------0--------------------------|

Tap to rate this tab
# A B C D E F G H I J K L M N O P Q R S T U V W X Y Z