Song name
# A B C D E F G H I J K L M N O P Q R S T U V W X Y Z

Frank Klepacki - Stomp tab

Artist: Frank Klepacki
Song: Stomp

Amazing song, I don't know why anyone hasn't tabbed it yet.
williamc1234@hotmail.com Please leave me feedback.


Tuning: Drop D (DADGBe)

Intro:
e|--------------------------------------------------------------------------|
B|--------------------------------------------------------------------------|
G|--------------------------------------------------------------------------|
D|--------------------------------------------------------------------------|
A|-----3--3--6-3--------3--3--8-3-------------------------------------------|
D|-6-6---6-6----0---6-6---6-6----0------------------------------------------|
PM  		    

Main riff:

e|--------------------------------------------------------------------------|
B|--------------------------------------------------------------------------|
G|--------------------------------------------------------------------------|
D|--0----3----6----5----3-5-3-5---------------------------------------------|
A|--0-00-3-00-6-00-5-00-3-5-3-5---------------------------------------------|
D|--0-00-3-00-6-00-5-00-3-5-3-5---------------------------------------------|
PM    ..   ..   ..   ..

Interlude:


e|--------------------------------------------------------------------------|
B|--------------------------------------------------------------------------|
G|--------------------------------------------------------------------------|
D|--0----0---0-----0-0-3----------------------------------------------------|
A|--0-00-0-0-0-000-0-0-3----------------------------------------------------|
D|--0-00-0-0-0-000-0-0-3----------------------------------------------------|
PM    ..   .   ...  

Verse:


e|--------------------------------------------------------------------------|
B|--------------------------------------------------------------------------|
G|--------------------------------------------------------------------------|
D|--6----10----10---13-12---------------------------------------------------|
A|--6-00-10-00-10-0-13-12-00000000------------------------------------------|
D|--6-00-10-00-10-0-13-12-00000000------------------------------------------|
PM    ..    ..    .       ........

When the intro guitar starts playing in the verse, first it's:


e|--------------------------------------------------------------------------|
B|--------------------------------------------------------------------------|
G|--------------------------------------------------------------------------|
D|--6----10----10---13-12---------------------------------------------------|
A|--6-00-10-00-10-0-13-12-00000000------------------------------------------|
D|--6-00-10-00-10-0-13-12-00000000------------------------------------------|
PM    ..    ..    .       ........

Then it's:


e|--------------------------------------------------------------------------|
B|--------------------------------------------------------------------------|
G|--------------------------------------------------------------------------|
D|--6----10----10---15-12---------------------------------------------------|
A|--6-00-10-00-10-0-15-12-00000000------------------------------------------|
D|--6-00-10-00-10-0-15-12-00000000------------------------------------------|
PM    ..    ..    .       ........

I think the order is pretty obvious. I figured this out by ear. My first tab. Hope it helps! :)
Tap to rate this tab
 
# A B C D E F G H I J K L M N O P Q R S T U V W X Y Z