Song name
# A B C D E F G H I J K L M N O P Q R S T U V W X Y Z

Frank Klepacki - Hell March tab

Help us improve GuitareTab! Take a short survey!
uh, yeah this is my first tab (no, really)
the only other tab for this song is a power tab, and you need software for
it, so i thought id translate (what i can) for the average joe, i have the
basic verse and lead riff in here, so, rate kindly

yeah, peace out, --- syndrome ---
                   <---------pm-------->
E-------------------------------------------------------------------------|
B-------------------------------------------------------------------------|
G-------------------------------------------------------------------------|
D----2--2--3-----5--------------------------------------------------------|X2
A----2--2--3-----5--------------------------------------------------------|
D----2--2--3-0-0-5-0-0-0-0-0-0-0-0-0-0-0----------------------------------|

but towards the end of the second palm muted open D string, do this fill,
you can listen to the track for timing on both parts, but this is just a
basic version without time signitures

E-------------------------------------------------------------------------|
B-------------------------------------------------------------------------|
G-------------------------------------------------------------------------|
D----------0--------------------------------------------------------------|
A-------------------------------------------------------------------------|
D----3-4-5---5-4-3--------------------------------------------------------|



this is the lead bit that plays at around 1:50, its one slide to the next
E-------------------------------------------------------------------------|
B----7/8---8\5---5/7---7/12---12\11---11/14---14--------------------------|
G-------------------------------------------------------------------------|
D-------------------------------------------------------------------------|
A-------------------------------------------------------------------------|
D-------------------------------------------------------------------------|


this is pretty much all i got, i hope its helpful.

if anyone has any corrections to email me, or perhaps a way to get the rest
of the original red alert album (cos i really want it!)then email me at:
ivebeentangoed43@hotmail.com

hope i could help --syndrome--
Related for Hell March tab