Guitaretab - guitar tabs
Song name
# A B C D E F G H I J K L M N O P Q R S T U V W X Y Z

Frank Loesser - Heart And Soul tab

Well this is chord/ slash tabs/ slash lesson cuz i made up some(two) of the chords, 
and there is a specific way to play it. 
This is tabbed on guitar the way i learned it on piano....

Tuning: Standard

Chords Used (In order used):

                  Made-up
   Cadd9(1)       Cadd9(2)         (Made up)F?       G
E [----3------------3-----------------------x----------3---]
B [----3------------3-----------------------1----------3---]
G [----0------------0-----------------------x----------0---]
D [----2------------2-----------------------x----------0---]
A [----3------------0-----------------------0----------2---]
E [----x------------x-----------------------1----------3---]


Part 1
Just play over and over
This is the “rhythm guitar”  part
[ Tab from: http://www.guitaretab.com/f/frank-loesser/190364.html ]
          Cadd9      Cadd9(2)             F-ish          G
[-----------------------------------------------------------------------]
[----------------------------------------1--1------------2--2-----------]
[----------0--0----------0--0-------------------------------------------]
[----------2--2----------2--2-------------------------------------------]
[---3--3-----------0--0------------------0--0------------2--2-----------]
[-----------------------------------1--1------------3--3----------------]

This is the “solo” or “first” guitar part
[-------------------------------------------------------------------]
[-------------------------------------------------------------------]
[-------------------------------------------------------------------]
[------------------------------0--2--2--2----2--0-----0--2--3-------]
[--3--3--3----3--2--0--2--3-------------------------3---------------]
[-------------------------------------------------------------------]

[------------------------------------------------------------]
[------------------------------------------------------------]
[--0------2--0-----------------------------------------------]
[----------------3--2--0-------------------------------------]
[-----3-------------------3---2--0--------------0--2---(3)---]
[-------------------------------------3--1----3--------------]

You can either switch between part 1 and part 2 or play with a friend. 
Hope you like it and it is useful!
Enjoy!
Related for Heart And Soul tab