Song name
# A B C D E F G H I J K L M N O P Q R S T U V W X Y Z

Frank Zappa - Hungry Freaks Daddy tab

good song off of Freak Out! which is probably FZ and the mothers best album.
this is also my first tab

Main Riff

e/-----------------|
b/-----------------|
g/--2--------------|
d/-----0---------0-| repeat 8x
a/0--0---3--0--3---|
e/-----------------|


e/2--2--0--0--------1-|
b/0--0--0--0--1--1--1-|
g/2--2--6--6--0--0--2-| Play these chords 1/2 notes then the last one whole
d/0--0--6--6--0--0--2-|
a/--------------------|
e/--------------------|


e/-----------------|
b/-----------------|
g/--2--------------|
d/-----0---------0-| repeat 3x
a/0--0---3--0--3---|
e/-----------------|


e/0--2--0--2-------|
b/2--0--2--0-------|
g/4--2--4--2-------|
d/6--0--6--0-------|
a/-----------------|
e/-----------------|


e/4-4-4-7-------4-4-4-7--------------5-|
b/--------7-7-7---------7-7-7-7-7-7-7--|
g/-------------------------------------|
d/-------------------------------------|
a/-------------------------------------|
e/-------------------------------------|


e/--------2-2-2-5--0-0-0-0--2-2-2------|
b/5-5-5-5-------------------3-3-3------|
g/-------------------------------------|
d/-------------------------------------|
a/-------------------------------------|
e/-------------------------------------|


e/5-3-5-7-5--2-2-2---------0---0-2-0----|
b/-----------2-2-2--5-5-5--0-2-0-2-0----|
g/---------------------------3----------|
d/--------------------------------------|
a/--------------------------------------|
e/--------------------------------------|

e/5-3-5-7-5--------|
b/-----------------|
g/-----------------|
d/-----------------|
a/-----------------|
e/-----------------|


Thats pretty much the whole song cept for the solo i will try to figure out later but try it
Tap to rate this tab
 
# A B C D E F G H I J K L M N O P Q R S T U V W X Y Z