Song name
# A B C D E F G H I J K L M N O P Q R S T U V W X Y Z

Frank Zappa - Keep It Greasy tab

E||----------------------|----------------------|----------------------|
B||----------------------|----------------------|----------------------|
G||----------------------|----------------------|----------------------|
D||----------------------|----------------------|----------------------|
A||--0----3----4----5----|--3---------5----3----|-------5----3---------|
E||----------------------|-------5--------------|--5--------------5----|

----------------------|----------------------|----------------------|
----------------------|----------------------|----------------------|
----------------------|----------------------|----------------------|
--3----3--------------|----------------------|-----------------6----|
------------5----3----|-------5----3---------|--5----3--------------|
----------------------|--5--------------5----|------------5---------|

------------||
------------||
------------||
--5---------||
------------||
------------||
Tap to rate this tab
# A B C D E F G H I J K L M N O P Q R S T U V W X Y Z