Song name
# A B C D E F G H I J K L M N O P Q R S T U V W X Y Z

Frenzal Rhomb - When My Baby Smiles At Me I Go To Rehab tab

SONG: When My Baby Smiles At Me I Go To Rehab
BAND: Frenzal Rhomb
ALBUM: Smoko At The Pet Food Factory
TABBED BY: Will Mitchell

This is my first tab so go easy on me but I'm pretty sure I've tabbed this 100% 
correct. Great song by my favourite Australian Band. 


VERSE: 
e|---------------------------------------------------------------------------|
B|---------------------------------------------------------------------------|
G|-666---------666-------------666-4-6---------------------------------------|
D|-666-222-444-666-----222-444-666-4-6---------------------------------------| 
A|-444-222-444-444-----222-444-444-2-4---------------------------------------|
E|-----000-222---------000-222-----------------------------------------------|
  
CHORUS
e|---------------------------------------------------------------------------|
B|---------------------------------------------------------------------------|
G|---------------------------------13-13-13-13-13-13---11-11-11--------------|
D|--666666-444-666666-444----OR----13-13-13-13-13-13---11-11-11--------------|
A|--666666-444-666666-444----------11-11-11-11-11-11---9--9--9---------------|
E|--444444-222-444444-222----------------------------------------------------|
 
SOLO
e|---------------------------------------------------------------------------|
B|---------------------------------------------------------------------------|
G|---------------------------------------------------------------------------|
D|---666-9-6--4-2-444-6-3---------6-4----------------------------------------|
A|------------------------4-6-777-----7-6-4----------------------------------|
E|---------------------------------------------------------------------------|
 SOLO Continued..
e|---------------------------------------------------------------------------|
B|---999-12-9---7-5-777-9-6----------9-7--------9-12--14-14-14---------------|
G|--------------------------6-8-999------------------------------------------|
D|---------------------------------------------------------------------------|
A|---------------------------------------------------------------------------|
E|---------------------------------------------------------------------------|
Tap to rate this tab
# A B C D E F G H I J K L M N O P Q R S T U V W X Y Z