Song name
# A B C D E F G H I J K L M N O P Q R S T U V W X Y Z

Frightened Rabbit - Modern Leper tab

Basic outline, listen to track to get timings. Enjoy

Intro & Verse
e.------------------------|
b.------------------------|
g.------------------------|
d.--12----12---12----5----|
a.---9----10----9----5----|
D.---0-----0----0----5----|


Chorus
e  -------------------|
b  -------------------|
g  -------------------|
d  -12--5---7---9-----|
a  -9---5---7---9-----|
D  -0---5---7---9-----|

mini SOLO
e--------------|
b--------------|
g-7-7-7-7/9-7--|
d--------------|
a--------------|
D--------------|


a_pilcher_is@hotmail.com
Tap to rate this tab
# A B C D E F G H I J K L M N O P Q R S T U V W X Y Z