Song name
# A B C D E F G H I J K L M N O P Q R S T U V W X Y Z

Frightened Rabbit - Architect tab

------------------------------------------------------------------------
                 ARCHITECT - Frightened Rabbit
                     ft. Andy Hull           
------------------------------------------------------------------------
Tabbed by: Brandon Peralta
E-mail: peralta.brandon@aol.com

Tuning low to high: CGCGce

'*'
 *  means repeat as necessary


Intro/Verse:                               
e|---------------------------------|---------------------------------||
c|--------0---------------0--------|--------0---------------0--------||
G|--7/9-------9-----7/9-------9----|--9---------7-----5---------5----*|
C|------0-------0-------0-------0--|------0-------0-------0-------0--*|
G|---------------------------------|---------------------------------||
C|--0-------0-------0-------0------|--9-------7-------5-------5------||
8's |   |   |   |   |   |   |   |     |   |   |   |   |   |   |   |


Chorus:
e|---------------------------------|---------------------------------|
c|--------0---------------0--------|--------0---------------0--------|
G|--5---------5-----5---------5----|--7---------7-----7---------7----|
C|------0-------0-------0-------0--|------0-------0-------0-------0--|
G|---------------------------------|---------------------------------|
C|--5-------5-------5-------5------|--7-------7-------7-------7------|
    |   |   |   |   |   |   |   |     |   |   |   |   |   |   |   |   

e|---------------------------------|---------------------------------|
c|--------0---------------0--------|--------0---------------0--------|
G|--5---------5-----5---------5----|--4---------4-----4---------4----|
C|------0-------0-------0-------0--|------0-------0-------0-------0--|
G|---------------------------------|---------------------------------|
C|--5-------5-------5-------5------|--7-------7-------7-------7------|
    |   |   |   |   |   |   |   |     |   |   |   |   |   |   |   |

e|---------------------------------|---------------------------------|
c|--------0---------------0--------|--------0---------------0--------|
G|--5---------5-----5---------5----|--7---------7-----9---------12---|
C|------0-------0-------0-------0--|------0-------0-------0-------0--|
G|---------------------------------|---------------------------------|
C|--5-------5-------5-------5------|--7-------7-------9-------12-----|
    |   |   |   |   |   |   |   |     |   |   |   |   |   |   |   |

e|---------------------------------|---------------------------------|
c|--------0---------------0--------|--------0---------------0--------|
G|--4---------5-----7---------9----|--12-------12-----9---------9----|
C|------0-------0-------0-------0--|------0-------0-------0-------0--|
G|---------------------------------|---------------------------------|
C|--4-------5-------7-------9------|--12------0-------0-------0------|
    |   |   |   |   |   |   |   |     |   |   |   |   |   |   |   |


Intro/Verse:
                               
e|---------------------------------|---------------------------------||
c|--------0---------------0--------|--------0---------------0--------||
G|--7/9-------9-----7/9-------9----|--9---------7-----5---------5----*|
C|------0-------0-------0-------0--|------0-------0-------0-------0--*|
G|---------------------------------|---------------------------------||
C|--0-------0-------0-------0------|--9-------7-------5-------5------||
8's |   |   |   |   |   |   |   |     |   |   |   |   |   |   |   |




2nd Chorus:
e|---------------------------------|---------------------------------|
c|--------0---------------0--------|--------0---------------0--------|
G|--5---------5-----5---------5----|--7---------7-----7---------7----|
C|------0-------0-------0-------0--|------0-------0-------0-------0--|
G|---------------------------------|---------------------------------|
C|--5-------5-------5-------5------|--7-------7-------7-------7------|
    |   |   |   |   |   |   |   |     |   |   |   |   |   |   |   |   

e|---------------------------------|---------------------------------|
c|--------0---------------0--------|--------0---------------0--------|
G|--5---------5-----5---------5----|--4---------4-----4---------4----|
C|------0-------0-------0-------0--|------0-------0-------0-------0--|
G|---------------------------------|---------------------------------|
C|--5-------5-------5-------5------|--7-------7-------7-------7------|
    |   |   |   |   |   |   |   |     |   |   |   |   |   |   |   |

e|---------------------------------|---------------------------------|
c|--------0---------------0--------|--------0---------------0--------|
G|--5---------5-----5---------5----|--7---------7-----9---------12---|
C|------0-------0-------0-------0--|------0-------0-------0-------0--|
G|---------------------------------|---------------------------------|
C|--5-------5-------5-------5------|--7-------7-------9-------12-----|
    |   |   |   |   |   |   |   |     |   |   |   |   |   |   |   |

e|---------------------------------|----------------------------------|
c|--------0---------------0--------|--------0----------------0--------|
G|--4---------5-----7---------9----|--12-------12-----14---------4----|
C|------0-------0-------0-------0--|------0-------0--------0-------0--|
G|---------------------------------|----------------------------------|
C|--4-------5-------7-------9------|--12------0-------14-------4------|
    |   |   |   |   |   |   |   |     |   |   |   |   |    |   |   |

Bridge: (I didn't want to...)
e|---------------------------------|---------------------------------|
c|--------0---------------0--------|--------0---------------0--------|
G|--5---------5-----5---------5----|--5---------5-----5---------5----|
C|------0-------0-------0-------0--|------0-------0-------0-------0--|
G|---------------------------------|---------------------------------|
C|--5-------5-------5-------5------|--5-------5-------5-------5------|
    |   |   |   |   |   |   |   |     |   |   |   |   |   |   |   |

e|---------------------------------|----------------------------------||
c|--------0---------------0--------|--------0----------------0--------||
G|--4---------5-----7---------9----|--12-------12-----14---------4----*|
C|------0-------0-------0-------0--|------0-------0--------0-------0--*|
G|---------------------------------|----------------------------------||
C|--4-------5-------7-------9------|--12------0-------14-------4------||
    |   |   |   |   |   |   |   |     |   |   |   |   |    |   |   |


Outro:                               
e|---------------------------------|---------------------------------||
c|--------0---------------0--------|--------0---------------0--------||
G|--7/9-------9-----7/9-------9----|--9---------7-----5---------5----*|
C|------0-------0-------0-------0--|------0-------0-------0-------0--*|
G|---------------------------------|---------------------------------||
C|--0-------0-------0-------0------|--9-------7-------5-------5------||
    |   |   |   |   |   |   |   |     |   |   |   |   |   |   |   |

End on:

e|0  for suspense   0 for happy ending
c|0                 9
G|5                 0
C|0                 0
G|0                 0
C|5                 0





************************************

| /   slide up
| \   slide down
| h   hammer-on
| p   pull-off
| ~   vibrato
| +   harmonic
| x   Mute note
| b   Bend
| pb  Pre-bend
| br  Bend release
| pbr Pre-bend release
| brb Bend release bend

************************************
Tap to rate this tab
# A B C D E F G H I J K L M N O P Q R S T U V W X Y Z